Green Day Fan Venezuela

Punto de Reunión para todos los fans de Green Day Venezolanos!
 
ÍndiceÍndice  CalendarioCalendario  GaleríaGalería  FAQFAQ  MiembrosMiembros  Grupos de UsuariosGrupos de Usuarios  RegistrarseRegistrarse  Conectarse  

Comparte | 
 

 Burnout

Ir abajo 
AutorMensaje
GreenDayFanVzla
Admin
avatar

Mensajes : 561
Fecha de inscripción : 28/05/2010
Edad : 118
Localización : Venezuela

MensajeTema: Burnout    Lun Feb 18, 2013 1:46 pm

Tuning: half a step down

Verse
E|------------------------------------------------------------------------------|
B|------------------------------------------------------------------------------|
G|---------5-5-5-5-5-----------5-5--------------------------7-7-7-7-7-7-7-7-7-7-|
D|-5-5-5-5-5-5-5-5-5--5-5-5-5--5-5-3-3--5-5-5-5--3-3-3-3-3--7-7-7-7-7-7-7-7-7-7-|
A|-5-5-5-5-3-3-3-3-3--5-5-5-5--3-3-3-3--5-5-5-5--3-3-3-3-3--5-5-5-5-5-5-5-5-5-5-|
E|-3-3-3-3------------3-3-3-3------1-1--3-3-3-3--1-1-1-1-1----------------------|

Chorus
E|------------------------------------------------------------------------------------|
B|------------------------------------------------------------------------------------|
G|-5-5-5-5-------------5-5-----------------5-5-5-5-5-5-------------7-7-7-7-7-7-7-7-7-7|
D|-5-5-5-5-5-5-5-5-5-5-5-5-3-3-5-5-5-5-5-5-5-5-5-5-5-5-3-3-3-3-3-3-7-7-7-7-7-7-7-7-7-7|
A|-3-3-3-3-5-5-5-5-5-5-3-3-3-3-5-5-5-5-5-5-3-3-3-3-3-3-3-3-3-3-3-3-5-5-5-5-5-5-5-5-5-5|
E|---------3-3-3-3-3-3-----1-1-3-3-3-3-3-3-------------1-1-1-1-1-1--------------------|

Fill 1
E|----------------------------------------------------------------------------|
A|----------------------------------------------------------------------------|
D|--7-7-7-7-7-7-7-7-7-7-7-7--7-7-7-7-7-7-7-7-7-7-7-7--7-7-7-7-7-7-7-7-7-7-7-7-|
G|--7-7-7-7-7-7-7-7-7-7-7-7--7-7-7-7-7-7-7-7-7-7-7-7--7-7-7-7-7-7-7-7-7-7-7-7-|
B|--5-5-5-5-5-5-5-5-5-5-5-5--5-5-5-5-5-5-5-5-5-5-5-5--5-5-5-5-5-5-5-5-5-5-5-5-|
E|----------------------------------------------------------------------------|

Bridge
E|-------------|
A|-------------|
D|-------------|
G|-5-5-x-3-3/5-|
B|-5-5-x-3-3/5-|
E|-5-5-x-1-1/3-|
Volver arriba Ir abajo
Ver perfil de usuario http://greendayvzla.forumsmotion.com
 
Burnout
Volver arriba 
Página 1 de 1.

Permisos de este foro:No puedes responder a temas en este foro.
Green Day Fan Venezuela :: Green Day :: Música, Videos, Letras, Imagenes y algo más :: Tablaturas de Guitarra :: Dookie-
Cambiar a: