Green Day Fan Venezuela

Punto de Reunión para todos los fans de Green Day Venezolanos!
 
ÍndiceÍndice  CalendarioCalendario  GaleríaGalería  FAQFAQ  MiembrosMiembros  Grupos de UsuariosGrupos de Usuarios  RegistrarseRegistrarse  Conectarse  

Comparte | 
 

 Having a Blast

Ir abajo 
AutorMensaje
GreenDayFanVzla
Admin
avatar

Mensajes : 561
Fecha de inscripción : 28/05/2010
Edad : 118
Localización : Venezuela

MensajeTema: Having a Blast    Lun Feb 18, 2013 1:48 pm

Tuning half a step down

Intro
E|-------------------------------|-------------------------------|
B|-----------0-------------------|-----------0-------------------|
G|-6-6-6-6---0-------------------|-6-6-6-6---0-------------------|
D|-7-7-7-7---0---5-5-5-----------|-7-7-7-7---0---5-5-5-----------|
A|-7-7-7-7---0---5-5-5-------2---|-7-7-7-7---0---5-5-5-------2---|
E|-5-5-5-5---0---3-3-3---3-3---3-|-5-5-5-5---0---3-3-3---3-3---3-|

Verse
E|----------------------------|------------------------|------------------|
B|----------------------------|------------------------|------------------|
G|-2--------------------------|------------------------|----------2-2-2-2-|
D|-2--2-2-2-2-2-2-2-2-2-2-2-2-|-2-2-2-2-2-2-2-2-2-2-2-2|-2-2-2-2--2-2-2-2-|
A|-0--0-0-0-0-0-0-0-0-0-0-0-0-|-0-0-0-0-0-0-0-0-0-0-0-0|-0-0-0-0--0-0-0-0-|
E|----------------------------|------------------------|------------------|
PM **********************************************************

E|---------------------|-----------------|
B|---------------------|-----------------|
G|---------------------|-1-1-1-1-1-1-1-1-|
D|-5-5-5-5-5-5-5-5-5-5-|-2-2-2-2-2-2-2-2-|
A|-5-5-5-5-5-5-5-5-5-5-|-2-2-2-2-2-2-2-2-|
E|-3-3-3-3-3-3-3-3-3-3-|-0-0-0-0-0-0-0-0-|

Chorus
E|--------------------------------------------------------------------------------|
B|--------------------------------------------------------------------------------|
G|-7-7-7-7-7-7-7-7-7-7-7-7-6-6-6-6-6-6-6-6-6-6------------------------------------|
D|-7-7-7-7-7-7-7-7-7-7-7-7-7-7-7-7-7-7-7-7-7-7-9-9-9-9-9-9-9-9-9--5-5-5-5-5-5-5-5-|
A|-5-5-5-5-5-5-5-5-5-5-5-5-7-7-7-7-7-7-7-7-7-7-9-9-9-9-9-9-9-9-9--5-5-5-5-5-5-5-5-|
E|-------------------------5-5-5-5-5-5-5-5-5-5-7-7-7-7-7-7-7-7-7--3-3-3-3-3-3-3-3-|

Interlude (# = stop chord dead)
E|--------------------------------------------------------------------------|
B|--------------------------------------------------------------------------|
G|----------------4#----------------------------7-7-------------------------|
D|-7#--4-4-4-4-4--4#--2-2-2-2-2--7#--4-4-4-4-4--7-7--7-7-2------------------|
A|-7#--4-4-4-4-4--2#--2-2-2-2-2--7#--4-4-4-4-4--5-5--7-7-2------------------|
E|-5#--2-2-2-2-2------0-0-0-0-0--5#--2-2-2-2-2-------5-5-0------------------|

Interlude part 2
E|--------------------------------------------------------------------------|
B|--------------------------------------------------------------------------|
G|---------7-7-7-7----------------------------------------------------------|
D|-4-4-4-4-7-7-7-7-7-7-7-7-7-7-7-7-7-7--4-4-4-4--5-5-5-5--7-7-7--5/7--7-7-7-|
A|-4-4-4-4-5-5-5-5-7-7-7-7-7-7-7-7-7-7--4-4-4-4--5-5-5-5--7-7-7--5/7--7-7-7-|
E|-2-2-2-2---------5-5-5-5-5-5-5-5-5-5--2-2-2-2--3-3-3-3--5-5-5--3/5--5-5-5-|

E|--------------------------------------------------------------------------|
B|--------------------------------------------------------------------------|
G|----------7-7-7-7---------------------------------------------------------|
D|-4-4-4-4--7-7-7-7--7-7-7-7-7-7-7-7-7-7--4-4-4-4--5-5-5-5------------------|
A|-4-4-4-4--5-5-5-5--7-7-7-7-7-7-7-7-7-7--4-4-4-4--5-5-5-5------------------|
E|-2-2-2-2-----------5-5-5-5-5-5-5-5-5-5--2-2-2-2--3-3-3-3------------------|

Outro
E|-------------------------------|-------------------------------|
B|-----------0-------------------|-----------0-------------------|
G|-6-6-6-6---0-------------------|-6-6-6-6---0-------------------|
D|-7-7-7-7---0---5-5-5-----------|-7-7-7-7---0---5-5-5-----------|
A|-7-7-7-7---0---5-5-5-------2---|-7-7-7-7---0---5-5-5-------2---|
E|-5-5-5-5---0---3-3-3---3-3---3-|-5-5-5-5---0---3-3-3---3-3---3-|


E|-------------------------------|----------------------|
B|-----------0-------------------|-----------0----------|
G|-6-6-6-6---0-------------------|-6-6-6-6---0----------|
D|-7-7-7-7---0---5-5-5-----------|-7-7-7-7---0---5~~~~--|
A|-7-7-7-7---0---5-5-5-------2---|-7-7-7-7---0---5~~~~--|
E|-5-5-5-5---0---3-3-3---3-3---3-|-5-5-5-5---0---3~~~~--|
Volver arriba Ir abajo
Ver perfil de usuario http://greendayvzla.forumsmotion.com
 
Having a Blast
Volver arriba 
Página 1 de 1.
 Temas similares
-
» MORBID... Year of the Goat.
» Christian Mistress
» Blast Wave (Power Metal)

Permisos de este foro:No puedes responder a temas en este foro.
Green Day Fan Venezuela :: Green Day :: Música, Videos, Letras, Imagenes y algo más :: Tablaturas de Guitarra :: Dookie-
Cambiar a: