Green Day Fan Venezuela

Punto de Reunión para todos los fans de Green Day Venezolanos!
 
ÍndiceÍndice  CalendarioCalendario  GaleríaGalería  FAQFAQ  MiembrosMiembros  Grupos de UsuariosGrupos de Usuarios  RegistrarseRegistrarse  Conectarse  

Comparte | 
 

 Longview

Ir abajo 
AutorMensaje
GreenDayFanVzla
Admin
avatar

Mensajes : 561
Fecha de inscripción : 28/05/2010
Edad : 118
Localización : Venezuela

MensajeTema: Longview    Lun Feb 18, 2013 1:51 pm

Tuning half a step down

Intro (played by bass)
G|------|
D|------|
A|-19/5-| (slide real slow)
E|------|

Verse (played by Bass)
G|---------------------------------------9-7-6-7-|
D|------9-7-6-------7--6----------9-7-6--0-0-0-0-|
A|-5h7---------7p5-------5---9p7-----------------|
E|-----------------------------------------------|

Pre Chorus (played by Bass)
G|--------------------------------------|
D|------9-7-6-------7--6----------9-7-6-|
A|-5h7---------7p5-------5---9p7--------|
E|--------------------------------------|

Pre Chorus
e|-------------------------|
B|-------------------------|
G|-7-7-7-7-7-7-7-7-7-7-7-7-|
D|-7-7-7-7-7-7-7-7-7-7-7-7-|
A|-5-5-5-5-5-5-5-5-5-5-5-5-|
E|-------------------------|

Chorus
e|----------------------------------|----------------------------------|
B|----------------------------------|----------------------------------|
G|--------------------------9-9-9-9-|--------------------------9-9-9-9-|
D|-9-9-9-9-9-9-9-9--7-7-7-7-9-9-9-9-|-9-9-9-9-9-9-9-9--7-7-7-7-9-9-9-9-|
A|-9-9-9-9-9-9-9-9--7-7-7-7-7-7-7-7-|-9-9-9-9-9-9-9-9--7-7-7-7-7-7-7-7-|
E|-7-7-7-7-7-7-7-7--5-5-5-5---------|-7-7-7-7-7-7-7-7--5-5-5-5---------|

e|----------------------------------|-----------------------------------|
B|----------------------------------|-----------------------------------|
G|--------------------------9-9-9-9-|-----------------------------------|
D|-9-9-9-9-9-9-9-9--7-7-7-7-9-9-9-9-|-9-9-9-9-9-9-9-9--7-7-7-7--7-7-7-7-|
A|-9-9-9-9-9-9-9-9--7-7-7-7-7-7-7-7-|-9-9-9-9-9-9-9-9--7-7-7-7--7-7-7-7-|
E|-7-7-7-7-7-7-7-7--5-5-5-5---------|-7-7-7-7-7-7-7-7--5-5-5-5--5-5-5-5-|

Fill 1 (played by Bass)
G|------7---------9----7--6-------|------7---------9----7--6-----------|
D|---------7--7h9---9--------9--7-|---------7--7h9---9--------9--7-----|
A|-9p7----------------------------|-9p7--------------------------------|
E|--------------------------------|------------------------------------|

Bridge ('ive got no motivation')
e|------------------|------------------|------------------|------------------|
B|------------------|------------------|------------------|------------------|
G|-9~--9-9--7-7-7-7-|-9~--9-9--7-7-7-7-|-9~--9-9--7-7-7-7-|-9~--9-9--7-7-7-7-|
D|-9~--9-9--7-7-7-7-|-9~--9-9--7-7-7-7-|-9~--9-9--7-7-7-7-|-9~--9-9--7-7-7-7-|
A|-7~--7-7--5-5-5-5-|-7~--7-7--5-5-5-5-|-7~--7-7--5-5-5-5-|-7~--7-7--5-5-5-5-|
E|------------------|------------------|------------------|------------------|

Pre Chorus 2
e|-----------------------------------------------|
B|-----------------------------------------------|
G|-7-7-7-7-7-7-7-7--7-7-7-7-7-7-7-7--7-7-7-7-7-7-|
D|-7-7-7-7-7-7-7-7--7-7-7-7-7-7-7-7--7-7-7-7-7-7-|
A|-5-5-5-5-5-5-5-5--5-5-5-5-5-5-5-5--5-5-5-5-5-5-|
E|-----------------------------------------------|

Chorus 2
e|----------------------------------|----------------------------------|
B|----------------------------------|----------------------------------|
G|--------------------------9-9-9-9-|--------------------------9-9-9-9-|
D|-9-9-9-9-9-9-9-9--7-7-7-7-9-9-9-9-|-9-9-9-9-9-9-9-9--7-7-7-7-9-9-9-9-|
A|-9-9-9-9-9-9-9-9--7-7-7-7-7-7-7-7-|-9-9-9-9-9-9-9-9--7-7-7-7-7-7-7-7-|
E|-7-7-7-7-7-7-7-7--5-5-5-5---------|-7-7-7-7-7-7-7-7--5-5-5-5---------|

e|----------------------------------|----------------------------------|
B|----------------------------------|----------------------------------|
G|--------------------------9-9-9-9-|--------------------------9-9-9-9-|
D|-9-9-9-9-9-9-9-9--7-7-7-7-9-9-9-9-|-9-9-9-9-9-9-9-9--7-7-7-7-9-9-9-9-|
A|-9-9-9-9-9-9-9-9--7-7-7-7-7-7-7-7-|-9-9-9-9-9-9-9-9--7-7-7-7-7-7-7-7-|
E|-7-7-7-7-7-7-7-7--5-5-5-5---------|-7-7-7-7-7-7-7-7--5-5-5-5---------|

Outro
e|---------------|-----------12--12*|---------------|-----------12--12*|
B|-9h10--10--7~--|----9h10---12--12*|-9h10--10--7~--|----9h10---12--12*|
G|-9------9--7~--|--9---------9-----|-9------9--7~--|--9---------9-----|
D|---------------|------------------|---------------|------------------|
A|---------------|------------------|---------------|------------------|
E|---------------|------------------|---------------|------------------|
Volver arriba Ir abajo
Ver perfil de usuario http://greendayvzla.forumsmotion.com
 
Longview
Volver arriba 
Página 1 de 1.

Permisos de este foro:No puedes responder a temas en este foro.
Green Day Fan Venezuela :: Green Day :: Música, Videos, Letras, Imagenes y algo más :: Tablaturas de Guitarra :: Dookie-
Cambiar a: