Green Day Fan Venezuela

Punto de Reunión para todos los fans de Green Day Venezolanos!
 
ÍndiceÍndice  CalendarioCalendario  GaleríaGalería  FAQFAQ  MiembrosMiembros  Grupos de UsuariosGrupos de Usuarios  RegistrarseRegistrarse  Conectarse  

Comparte | 
 

 Welcome To Paradise

Ir abajo 
AutorMensaje
GreenDayFanVzla
Admin
avatar

Mensajes : 561
Fecha de inscripción : 28/05/2010
Edad : 118
Localización : Venezuela

MensajeTema: Welcome To Paradise   Lun Feb 18, 2013 1:52 pm

Tuning: Standard

Intro
e|------------------------------|------------------------------|
B|------------------------------|------------------------------|
G|-9-x-x-9-9-9-9--7-7-7---------|-9-x-x-9-9-9-9--7-7-7---------|
D|-9-x-x-9-9-9-9--7-7-7-7-7-7-7-|-9-x-x-9-9-9-9--7-7-7-7-7-7-7-|
A|-7-x-x-7-7-7-7--5-5-5-7-7-7-7-|-7-x-x-7-7-7-7--5-5-5-7-7-7-7-|
E|----------------------5-5-5-5-|----------------------5-5-5-5-|

Verse
e|-------------------------------------------|---------------------------|
B|-------------------------------------------|---------------------------|
G|-9-9-9-9--7-7-7-7-7-7--9-x-x-9-x-9-x-9-9-9-|-9-9-9-9--7-7-7-7----------|
D|-9-9-9-9--7-7-7-7-7-7--9-x-x-9-x-9-x-9-9-9-|-9-9-9-9--7-7-7-7--5-5-5-5-|
A|-7-7-7-7--5-5-5-5-5-5--7-x-x-7-x-7-x-7-7-7-|-7-7-7-7--5-5-5-5--5-5-5-5-|
E|-------------------------------------------|-------------------3-3-3-3-|

e|-------------|
B|-------------|
G|-------------|
D|-9-9-9-9-9-9-|
A|-9-9-9-9-9-9-|
E|-7-7-7-7-7-7-|

Pre Chorus
e|----------------------------------|
B|----------------------------------|
G|----------------------------------|
D|-5-5-5-5--9-9-9-9-9-9-9-9-9-9-9-9-|
A|-5-5-5-5--9-9-9-9-9-9-9-9-9-9-9-9-|
E|-3-3-3-3--7-7-7-7-7-7-7-7-7-7-7-7-|

Chorus
e|--------------------------------------|---------------------------------|
B|--------------------------------------|---------------------------------|
G|---------------------------5-5-5-5-5-5|------------------4-4-4-4-4-4-4-4|
D|-2-2-2-2-5-5-5-5-5-7-7-7-7-5-5-5-5-5-5|2-2-2-2-5-5-5-5-5-4-4-4-4-4-4-4-4|
A|-2-2-2-2-5-5-5-5-5-7-7-7-7-3-3-3-3-3-3|2-2-2-2-5-5-5-5-5-2-2-2-2-2-2-2-2|
E|-0-0-0-0-3-3-3-3-3-5-5-5-5------------|0-0-0-0-3-3-3-3-3----------------|

e|--------------------------------------|------------------|
B|--------------------------------------|------------------|
G|---------------------------5-5-5-5-5-5|------------------|
D|-2-2-2-2-5-5-5-5-5-7-7-7-7-5-5-5-5-5-5|-5/9-9-9-9-9-9--9-|
A|-2-2-2-2-5-5-5-5-5-7-7-7-7-3-3-3-3-3-3|-5/9-9-9-9-9-9--9-|
E|-0-0-0-0-3-3-3-3-3-5-5-5-5------------|-3/7-7-7-7-7-7--7-|

Interlude
Bass
G|---------|----------|---------|---------|
D|-----7h9-|-------9--|-----8---|-----7---|
A|-7-7-----|-10-10--10|-9-9---9-|-8-8---8-| x16
E|---------|----------|---------|---------|

Guitar 1 (start on the 5th repeat of the bass riff and you should end on the
e|-----------------------------------------| 8th repeat
B|-----------------------------------------|
G|--2b~----------------------7b---5-4-3-2--|
D|------2b~--3-2-0-2-3-2-------------------|
A|-----------------------------------------|
E|-----------------------------------------|

Guitar 1 (play straight after above riff)
e|------------------------------------------------|
B|------------------------------------------------|
G|-9-9-9-9--12-12-12-12--11-11-11-11--10-10-10-10-|
D|-9-9-9-9--12-12-12-12--11-11-11-11--10-10-10-10-| x8
A|-7-7-7-7--10-10-10-10---9--9--9--9---8--8--8--8-|
E|------------------------------------------------|
PM *** ******** ********* ********* ***

Guitar 2 (start on the 4th repeat of guitar 1 riff above)
e|------------------------------------------------|
B|------------------------------------------------|
G|-9-9-9-9--12-12-12-12--11-11-11-11--10-10-10-10-|
D|-9-9-9-9--12-12-12-12--11-11-11-11--10-10-10-10-| x4
A|-7-7-7-7--10-10-10-10---9--9--9--9---8--8--8--8-|
E|------------------------------------------------|
PM **********************************************

Guitar 1 and 2 (play straight after above riff)
e|------------------------------------------------|
B|------------------------------------------------|
G|-9-9-9-9--12-12-12-12--11-11-11-11--10-10-10-10-|
D|-9-9-9-9--12-12-12-12--11-11-11-11--10-10-10-10-| x4
A|-7-7-7-7--10-10-10-10---9--9--9--9---8--8--8--8-|
E|------------------------------------------------|

Outro
e|------------------------------|-----------------------------------|
B|------------------------------|-----------------------------------|
G|-9-x-x-9-9-9-9--7-7-7---------|-9-x-x-9-9-9-9--7-7-7----------9#--|
D|-9-x-x-9-9-9-9--7-7-7-7-7-7-7-|-9-x-x-9-9-9-9--7-7-7-7-7-7-7--9#--|
A|-7-x-x-7-7-7-7--5-5-5-7-7-7-7-|-7-x-x-7-7-7-7--5-5-5-7-7-7-7--7#--|
E|----------------------5-5-5-5-|----------------------5-5-5-5------|
Volver arriba Ir abajo
Ver perfil de usuario http://greendayvzla.forumsmotion.com
 
Welcome To Paradise
Volver arriba 
Página 1 de 1.
 Temas similares
-
» STYX - A.D. 1928 - Rockin' The Paradise (Paradise Theater - 1981)
» SNSD - All About Girls' Generation "Paradise in Phuket" - Teaser #1
» Paradise Lost - Tragic Idol (2012)
» Leaving Paradise - Nick y Tu - (Adaptada)
» El clásico Paradise

Permisos de este foro:No puedes responder a temas en este foro.
Green Day Fan Venezuela :: Green Day :: Música, Videos, Letras, Imagenes y algo más :: Tablaturas de Guitarra :: Dookie-
Cambiar a: