Green Day Fan Venezuela

Punto de Reunión para todos los fans de Green Day Venezolanos!
 
ÍndiceÍndice  CalendarioCalendario  GaleríaGalería  FAQFAQ  MiembrosMiembros  Grupos de UsuariosGrupos de Usuarios  RegistrarseRegistrarse  Conectarse  

Comparte | 
 

 Pulling Teeth

Ir abajo 
AutorMensaje
GreenDayFanVzla
Admin
avatar

Mensajes : 561
Fecha de inscripción : 28/05/2010
Edad : 118
Localización : Venezuela

MensajeTema: Pulling Teeth   Lun Feb 18, 2013 1:54 pm

Intro Part 2
e|----------------------------------------|-----------------------------------|
B|--------4-4-4-4-4-4-4-4--4-4-4-4-4----4-|-4-4-4-4-4-4-4-4--4-4-4-4-4--5----4|
G|-4-4-4--4-4-4-4-4-4-4-4--4-4-4-4-4-4b-4-|-4-4-4-4-4-4-4-4--4-4-4-4-4--4-4b-4|
D|-4-4-4--4-4-4-4-4-4-4-4--4-4-4-4-4------|-4-4-4-4-4-4-4-4--4-4-4-4-4--4-----|
A|-2-2-2--2-2-2-2-2-2-2-2--0-0-0-0-0------|-2-2-2-2-2-2-2-2--0-0-0-0-0--4-----|
E|----------------------------------------|-----------------------------------|

Verse
e|-0-0-0-0-0--0-0-0-0-0--0-0-0-0-0-------------0-0-0-0-0--0-0-0-0-0-|
B|-0-0-0-0-0--2-2-2-2-2--0-0-0-0-0--4-4-4-4-4--0-0-0-0-0--2-2-2-2-2-|
G|-1-1-1-1-1--2-2-2-2-2--1-1-1-1-1--4-4-4-4-4--1-1-1-1-1--2-2-2-2-2-|
D|-2-2-2-2-2--2-2-2-2-2--2-2-2-2-2--4-4-4-4-4--2-2-2-2-2--2-2-2-2-2-|
A|-2-2-2-2-2--0-0-0-0-0--2-2-2-2-2--2-2-2-2-2--2-2-2-2-2--0-0-0-0-0-|
E|-0-0-0-0-0-------------0-0-0-0-0-------------0-0-0-0-0------------|

e|-0-0-0---------0-0-0-0-0-|
B|-0-0-0--4-4-4--0-0-0-0-0-|
G|-1-1-1--4-4-4--1-1-1-1-1-|
D|-2-2-2--4-4-4--2-2-2-2-2-|
A|-2-2-2--2-2-2--2-2-2-2-2-|
E|-0-0-0---------0-0-0-0-0-|

Chorus
e|----------------------------------0-0-0-0-0--0-------0-------|
B|-----5-5-----5-5-----5-5-----5-5--0-0-0-0-0----0-------0-----|
G|-6-6-6-6-6-6-6-6-6-6-6-6-6-6-6-6--1-1-1-1-1------1-------1---|
D|-6-6-6-6-6-6-6-6-6-6-6-6-6-6-6-6--2-2-2-2-2--------2-------2-|
A|-4-4-4-4-4-4-4-4-4-4-4-4-4-4-4-4--2-2-2-2-2------------------|
E|----------------------------------0-0-0-0-0------------------|

e|-------------------------------------------------------------|
B|-----5-5-----5-5-----5-5-----5-5--4-4-4-4-4-4-4-4-4-4-4-4-4-4|
G|-6-6-6-6-6-6-6-6-6-6-6-6-6-6-6-6--4-4-4-4-4-4-4-4-4-4-4-4-4-4|
D|-6-6-6-6-6-6-6-6-6-6-6-6-6-6-6-6--4-4-4-4-4-4-4-4-4-4-4-4-4-4|
A|-4-4-4-4-4-4-4-4-4-4-4-4-4-4-4-4--2-2-2-2-2-2-2-2-2-2-2-2-2-2|
E|-------------------------------------------------------------|

Solo (with verse played in the background)
e|---0---0-----0--0-0-0---------0-0-0---0--0----0--------------|
B|-0h2---0--0--0--2-2-2---2--0--0-0-0-0h2--0--0-0--2/4--4---4--|
G|----------1--1--2-2-2---2--1----------------1-1--2/4--4---4--|
D|------------------------2------------------------------------|
A|-------------------------------------------------------------|
E|-------------------------------------------------------------|

e|--------------------------------0--0--0-0--0--0--0--0--0-----|
B|--5--5--5---7--7--7---5--4--0---5--5--5/9--9--9--10-9--10/---|
G|--6--6--6---8--8--8---6--4--4--------------------------------|
D|-------------------------------------------------------------|
A|-------------------------------------------------------------|
E|-------------------------------------------------------------|

e|---0--0--0--0--0--0-0-0--0---0--0--0-0--0-0--0--0--0----0----|
B|--/12-12-12-10-10-9-9-10-10--10\9--9\7--7\5--5-------0-------|
G|-----------------------------------------------------1-------|
D|-------------------------------------------------------------|
A|-------------------------------------------------------------|
E|-------------------------------------------------------------|

e|-12-12----12-----|
B|-12----12----12--|
G|-----------------|
D|-----------------|
A|-----------------|
E|-----------------|

Outro
e|-0-0-0-0-0--0-0-0-0-0--0-0-0-0-0-------------0-0-0-0-0--0-0-0-0-0--0---0---0-|
B|-0-0-0-0-0--2-2-2-2-2--0-0-0-0-0--4-4-4-4-4--0-0-0-0-0--2-2-2-2-2--0-4-2-4-0-|
G|-1-1-1-1-1--2-2-2-2-2--1-1-1-1-1--4-4-4-4-4--1-1-1-1-1--2-2-2-2-2--1-4-2-4-1-|
D|-2-2-2-2-2--2-2-2-2-2--2-2-2-2-2--4-4-4-4-4--2-2-2-2-2--2-2-2-2-2--2-4-2-4-2-|
A|-2-2-2-2-2--0-0-0-0-0--2-2-2-2-2--2-2-2-2-2--2-2-2-2-2--0-0-0-0-0--2-2-0-2-2-|
E|-0-0-0-0-0-------------0-0-0-0-0-------------0-0-0-0-0-------------0-------0-|
Volver arriba Ir abajo
Ver perfil de usuario http://greendayvzla.forumsmotion.com
 
Pulling Teeth
Volver arriba 
Página 1 de 1.

Permisos de este foro:No puedes responder a temas en este foro.
Green Day Fan Venezuela :: Green Day :: Música, Videos, Letras, Imagenes y algo más :: Tablaturas de Guitarra :: Dookie-
Cambiar a: