Green Day Fan Venezuela

Punto de Reunión para todos los fans de Green Day Venezolanos!
 
ÍndiceÍndice  CalendarioCalendario  GaleríaGalería  FAQFAQ  MiembrosMiembros  Grupos de UsuariosGrupos de Usuarios  RegistrarseRegistrarse  Conectarse  

Comparte | 
 

 Basket Case

Ir abajo 
AutorMensaje
GreenDayFanVzla
Admin
avatar

Mensajes : 561
Fecha de inscripción : 28/05/2010
Edad : 118
Localización : Venezuela

MensajeTema: Basket Case   Lun Feb 18, 2013 1:56 pm

Tuning Down half a step

Verse
e|---------------------|------------------|---------------------|------------------|
b|---------------------|------------------|---------------------|------------------|
g|-9--------------9----|------------------|-6-------6-------6---|------------------|
D|-9--9-9-9-9-9-9-9--9-|------9---------9-|-6--6-6--6--6-6--6--6|------6---------6-|
a|-7--7-7-7-7-7-7-7--9-|-9-9--9--9-9-9--9-|-4--4-4--4--4-4--4--6|-6-6--6--6-6-6--6-|
e|-------------------7-|-7-7--7--7-7-7--7-|--------------------4|-4-4--4--4-4-4--4-|
PM *********** *** ***** *** *** *** *****

e|---------------------|------------------|--------------------|-------------------|
b|---------------------|------------------|--------------------|-------------------|
g|-------------------9-|------9---------9-|--------------------|-------------------|
D|------7-------7--9-9-|-9-9--9--9-9-9--9-|------9-----------9-|-----9---------9--9|
a|-7-7--7--7-7--7--7-7-|-7-7--7--7-7-7--7-|-9-9--9--9-9-9-9--9-|9-9--9--9-9-9--9--7|
e|-5-5--5--5-5--5------|------------------|-7-7--7--7-7-7-7--7-|7-7--7--7-7-7--7---|
PM *** *** * *** ***** *** ******* *** ***** *

Chorus
e|--------------------|---------------------|-------------------|-------------------|
b|--------------------|---------------------|-------------------|-------------------|
g|--------------------|---------------------|-----9-----------9-|-----9---------9---|
d|-----7-------7-----9|------9---------9--9-|9-9--9--9-9-9-9--9-|-9-9-9--9-9-9--9--9|
a|7-7--7--7-7--7--9--9|-9-9--9--9-9-9--9--7-|7-7--7--7-7-7-7--7-|-7-7-7--7-7-7--7--7|
e|5-5--5--5-5--5--7--7|-7-7--7--7-7-7--7----|-------------------|-------------------|
PM *** *** * *** ***** ******* ******* *** ***** *

e|--------------------|---------------------|-------------------|-------------------|
b|--------------------|---------------------|-------------------|-------------------|
g|--------------------|---------------------|-----9-----------9-|-----9---------9---|
d|-----7-------7-----9|------9---------9--9-|9-9--9--9-9-9-9--9-|-9-9-9--9-9-9--9--9|
a|7-7--7--7-7--7--9--9|-9-9--9--9-9-9--9--7-|7-7--7--7-7-7-7--7-|-7-7-7--7-7-7--7--7|
e|5-5--5--5-5--5--7--7|-7-7--7--7-7-7--7----|-------------------|-------------------|
PM *** *** * *** ***** ******* ******* *** ***** *

e|----------------------|---------------------|
b|----------------------|---------------------|
g|----------------------|---------------------|
d|------7-------7-----9-|------9---------9--9-|
a|-7-7--7--7-7--7--9--9-|-9-9--9--9-9-9--9--7-|
e|-5-5--5--5-5--5--7--7-|-7-7--7--7-7-7--7----|
PM *** *** * *** ***** *

Post Chorus
e|------------------------------------------------------------------|
B|-9--7-7--x--5--5--5--5--5--5--5-----------------------------------|
G|-9--7-7--x--6--6--6--6--6--6--6-------------------------------9-9-|
D|-9--7-7--x--6--6--6--6--6--6--6--7-7-------------9-9-9-9-9-9--9-9-|
A|-7--5-5--x--4--4--4--4--4--4--4--7-7--7-7-7-7-7--9-9-9-9-9-9--7-7-|
E|---------------------------------5-5--5-5-5-5-5--7-7-7-7-7-7------|
PM *********

Coda
e|----------------------------|----------------------------|
B|-9-x-x--4-x-x--5-x-x--4-4-4-|-9-x-x--4-x-x--5-x-x--4-4-4-|
G|-9-x-x--4-x-x--6-x-x--4-4-4-|-9-x-x--4-x-x--6-x-x--4-4-4-|
D|-9-x-x--4-x-x--6-x-x--4-4-4-|-9-x-x--4-x-x--6-x-x--4-4-4-|
A|-7-x-x--2-x-x--4-x-x--2-2-2-|-7-x-x--2-x-x--4-x-x--2-2-2-|
E|----------------------------|----------------------------|

Verse 2
e|-0--0--0--0----------------------|----------------------------------------------|
B|-0--0--0--0--x--4-4-4-4-4-4--x-x-|----------------------------------------------|
G|-1--1--1--1--x--4-4-4-4-4-4--x-x-|-6-6-6-6--------------------------9-9-9-9-9-9-|
D|-2--2--2--2--x--4-4-4-4-4-4--x-x-|-6-6-6-6-x-6-6-6-6-6-6--7-7-7-7-x-9-9-9-9-9-9-|
A|-2--2--2--2--x--2-2-2-2-2-2--x-x-|-4-4-4-4-x-6-6-6-6-6-6--7-7-7-7-x-7-7-7-7-7-7-|
E|-0--0--0--0----------------------|---------x-4-4-4-4-4-4--5-5-5-5-x-------------|

e|---------------------|
B|---------------------|
G|---------------------|
D|-9-9-9-9-9-9-9-9-9-9-|
A|-9-9-9-9-9-9-9-9-9-9-|
E|-7-7-7-7-7-7-7-7-7-7-|

Chorus 2
e|--------------------------------|-------------------------------|
B|--------------------------------|9--9--9--9-x-10-10-10-10-10-10-|
G|--------------------------------|9--9--9--9-x--9--9--9--9--9--9-|
D|-7--7--7--7-----9--9-9-9--9--9--|9--9--9--9-x--9--9--9--9--9--9-|
A|-7--7--7--7-----9--9-9-9--9--9--|7--7--7--7-x--7--7--7--7--7--7-|
E|-5--5--5--5--0--7--7-7-7--7--7--|-------------------------------|

e|----------------------|-------------------------------|---------------------|
B|----------------------|9--9--9--9-x-10-10-10-10-10-10-|---------------------|
G|----------------------|9--9--9--9-x--9--9--9--9--9--9-|---------------------|
D|7-7-7-7---9-9-9-9-9-9-|9--9--9--9-x--9--9--9--9--9--9-|7-7-7-7---9-9-9-9-9-9|
A|7-7-7-7---9-9-9-9-9-9-|7--7--7--7-x--7--7--7--7--7--7-|7-7-7-7---9-9-9-9-9-9|
E|5-5-5-5-0-7-7-7-7-7-7-|-------------------------------|5-5-5-5-0-7-7-7-7-7-7|

Bridge
e|-----------------------------------|-------------------|
B|-----------------------------------|-------------------|
G|-----------------------------------|-------------------|
D|-7---------------------------------|-9-9-9-9-9-9-9-9-9-|
A|-7---7-7-7-7-7-7-7-7-7-7-7-7-7-7-7-|-9-9-9-9-9-9-9-9-9-|
E|-5---5-5-5-5-5-5-5-5-5-5-5-5-5-5-5-|-7-7-7-7-7-7-7-7-7-|
PM *****************************

Pre Outro (there are two guitars tracks here)

Guitar 1 (when playing live this is usually pre recorded)
e|---0-----0----|---------0----|------------------------------|
B|------0-----0-|------------0-|------------------------------|
G|-1----2-------|------------x-|-------9-9-x------------------|
D|-2------------|-------6----7-|-7--7--9-9-x--9-9-9-9-9-9-9-9-|
A|--------------|-4--4--4------|-7--7--7-7-x--9-9-9-9-9-9-9-9-|
E|--------------|--------------|-5--5---------7-7-7-7-7-7-7-7-|

Guitar 2 (Billie usually plays this live)
E|--------------|--------------|------------------------------|
B|--------------|--------------|------------------------------|
G|--9-9-9--9-9--|--6-6-6--6-6--|-------9-9-x------------------|
D|--9-9-9--9-9--|--6-6-6--6-6--|-7--7--9-9-x--9-9-9-9-9-9-9-9-|
A|--7-7-7--7-7--|--4-4-4--4-4--|-7--7--7-7-x--9-9-9-9-9-9-9-9-|
E|--------------|--------------|-5--5---------7-7-7-7-7-7-7-7-|

Outro
Guitar 1 (when playing live this is usually pre recorded)
e|---0-----0---|----------0----|-------------|
B|------0----0-|-------------0-|-------------|
G|-1----2------|-------------x-|-----9-------|
D|-2-----------|-6-(6)--6----7-|-7---9--9~~--|
A|-------------|-4-(4)--4------|-7---7--9~~--|
E|-------------|---------------|-5------7~~--|

Guitar 2 (Billie usually plays this live)
E|-------------|---------------|-------------------------------|
B|-------------|---------------|-------------------------------|
G|-9-9-9--9-9--|--6-6-6--6-6---|-----9---------------2-----4~~-|
D|-9-9-9--9-9--|--6-6-6--6-6---|-7---9--9~~----------2--2--4~~-|
A|-7-7-7--7-7--|--4-4-4--4-4---|-7---7--9~~----------0--2--2~~-|
E|-------------|---------------|-5------7~~--16\7p0-----0------|
Volver arriba Ir abajo
Ver perfil de usuario http://greendayvzla.forumsmotion.com
 
Basket Case
Volver arriba 
Página 1 de 1.
 Temas similares
-
» mi CASE PUMA 195 extreme!!!!
» EN MARZO DE 2012 GIRA CONJUNTA DE PAUL COLLINS Y PETER CASE
» Diez selecciones olímpicas de basket
» Las Vegas: Lo Conocí, Me Case y… Estoy Embarazada?[Nick & Tu] HOT mayo 28/04/2012 11:51
» CASE 5150PRO

Permisos de este foro:No puedes responder a temas en este foro.
Green Day Fan Venezuela :: Green Day :: Música, Videos, Letras, Imagenes y algo más :: Tablaturas de Guitarra :: Dookie-
Cambiar a: