Green Day Fan Venezuela

Punto de Reunión para todos los fans de Green Day Venezolanos!
 
ÍndiceÍndice  CalendarioCalendario  GaleríaGalería  FAQFAQ  MiembrosMiembros  Grupos de UsuariosGrupos de Usuarios  RegistrarseRegistrarse  Conectarse  

Comparte | 
 

 She

Ir abajo 
AutorMensaje
GreenDayFanVzla
Admin
avatar

Mensajes : 561
Fecha de inscripción : 28/05/2010
Edad : 118
Localización : Venezuela

MensajeTema: She    Lun Feb 18, 2013 1:57 pm

Tuning standard


Intro/Verse (bass)
G|----------------------------------------------------------|
D|--4-4-4-4-4-4-4/6---------------------------4-4-4-4-4-----|
A|------------------4-4-4-4-4-4---2-2-2-2-2-2---------------|
E|------------------------------4---------------------------|

G|----------------------------------------------------------|
D|-4-4-4-4-4-4-4/6---------------------3h4--3h4--3h4--------|
A|-----------------4-4-4-4-4---2-2-2-2-----2----2-----------|
E|---------------------------4------------------------3-3-3-|

Pre Chorus
E|-------------------|
B|-------------------|
G|-------------------|
D|-4-4-4-4-4-4-4-4-4-|
A|-4-4-4-4-4-4-4-4-4-|
E|-2-2-2-2-2-2-2-2-2-|
Pm *****************

Chorus
E|--------------------------------------|----------------------------------------|
B|--------------------------------------|----------------------------------------|
G|-6-6-6-6-6-6-6-6--4-4-4-4-------------|-6-6-6-6-6-6-6-6--4-4-4-4---------------|
D|-6-6-6-6-6-6-6-6--4-4-4-4-4-4-4-4-4-4-|-6-6-6-6-6-6-6-6--4-4-4-4--4-4-4-4-4-4--|
A|-4-4-4-4-4-4-4-4--2-2-2-2-4-4-4-4-4-4-|-4-4-4-4-4-4-4-4--2-2-2-2--4-4-4-4-4-4--|
E|--------------------------2-2-2-2-2-2-|---------------------------2-2-2-2-2-2--|

E|---------------------|---------------------|-------------------------------------|
B|---------------------|---------------------|-------------------------------------|
G|-4-4-4-4-------------|-4-4-4-4-------------|-4-4-4-4-------------6-6-6-6-6-6-6-6-|
D|-4-4-4-4-4-4-4-4-4-4-|-4-4-4-4-4-4-4-4-4-4-|-4-4-4-4-4-4-4-4-4-4-6-6-6-6-6-6-6-6-|
A|-2-2-2-2-4-4-4-4-4-4-|-2-2-2-2-4-4-4-4-4-4-|-2-2-2-2-4-4-4-4-4-4-4-4-4-4-4-4-4-4-|
E|---------2-2-2-2-2-2-|---------2-2-2-2-2-2-|---------2-2-2-2-2-2-----------------|

Verse 2
E|-----------------------------------------------------------------------------------|
B|-----------------------------------------------------------------------------------|
G|---------------------6-6-6-6-6-6-6-6-6-6--4-4-4-4-4-4-4-4-4-4--4-4-4-4-4-4-4-4-4-4-|
D|-4-4-4-4-4-4-4-4-4-4-6-6-6-6-6-6-6-6-6-6--4-4-4-4-4-4-4-4-4-4--4-4-4-4-4-4-4-4-4-4-|
A|-4-4-4-4-4-4-4-4-4-4-4-4-4-4-4-4-4-4-4-4--2-2-2-2-2-2-2-2-2-2--2-2-2-2-2-2-2-2-2-2-|
E|-2-2-2-2-2-2-2-2-2-2---------------------------------------------------------------|
PM ***************** ****** ***** * ********* ***** *****************

E|------------|---------------------------------------------------------------------|
B|------------|---------------------------------------------------------------------|
G|-----4------|--------------------6-6-6-6-6-6-6-6-6--4-4-4-4-4-4-4-4-4--4-4-4-4-4-4|
D|-4-4-4-4-4--|-4-4-4-4-4-4-4-4-4--6-6-6-6-6-6-6-6-6--4-4-4-4-4-4-4-4-4--4-4-4-4-4-4|
A|-4-4-2-4-4--|-4-4-4-4-4-4-4-4-4--4-4-4-4-4-4-4-4-4--2-2-2-2-2-2-2-2-2--2-2-2-2-2-2|
E|-2-2---2-2--|-2-2-2-2-2-2-2-2-2---------------------------------------------------|
PM *** *** ***** ***** ***** ***** ***** *****

E|---------------------------------|
B|---------------------------------|
G|-4-4-4-4-------4-4-x-------------|
D|-4-4-4-4---4-4-4-4-x-4-4-4-4-4-4-|
A|-2-2-2-2---4-4-2-2-x-4-4-4-4-4-4-|
E|-----------2-2-------2-2-2-2-2-2-|

Bridge
E|----------------------------------------------------------------------------------|
B|----------------------------------------------------------------------------------|
G|----------------------6-6-6-6-6-6-6-6-6-6--4-4-4-4-4-4-4-4-4-4-4-4-------4-4-x----|
D|-4-4-4-4-4-4-4-4-4-4--6-6-6-6-6-6-6-6-6-6--4-4-4-4-4-4-4-4-4-4-4-4--4-4--4-4-x----|
A|-4-4-4-4-4-4-4-4-4-4--4-4-4-4-4-4-4-4-4-4--2-2-2-2-2-2-2-2-2-2-2-2--4-4--2-2-x----|
E|-2-2-2-2-2-2-2-2-2-2------------------------------------------------2-2-----------|

E|-----------------|----------------------------------------------------------------|
B|-----------------|----------------------------------------------------------------|
G|-----------------|---------------------6-6-6-6-6-6-6-6-6-6--4-4-4-4-4-4-4-4-4-4-4-|
D|-4-4-4-4-4-4-4-4-|-4-4-4-4-4-4-4-4-4-4-6-6-6-6-6-6-6-6-6-6--4-4-4-4-4-4-4-4-4-4-4-|
A|-4-4-4-4-4-4-4-4-|-4-4-4-4-4-4-4-4-4-4-4-4-4-4-4-4-4-4-4-4--2-2-2-2-2-2-2-2-2-2-2-|
E|-2-2-2-2-2-2-2-2-|-2-2-2-2-2-2-2-2-2-2--------------------------------------------|

E|----------------------------|
b|----------------------------|
G|-----4-4-x------------------|
D|-4-4-4-4-x--4-4-4-4-4-4-4-4-|
A|-4-4-2-2-x--4-4-4-4-4-4-4-4-|
E|-2-2--------2-2-2-2-2-2-2-2-|

End
E|-----|
E|-----|
G|-----|
D|-4#--|
A|-4#--|
E|-2#--|
Volver arriba Ir abajo
Ver perfil de usuario http://greendayvzla.forumsmotion.com
 
She
Volver arriba 
Página 1 de 1.

Permisos de este foro:No puedes responder a temas en este foro.
Green Day Fan Venezuela :: Green Day :: Música, Videos, Letras, Imagenes y algo más :: Tablaturas de Guitarra :: Dookie-
Cambiar a: