Green Day Fan Venezuela

Punto de Reunión para todos los fans de Green Day Venezolanos!
 
ÍndiceÍndice  CalendarioCalendario  GaleríaGalería  FAQFAQ  MiembrosMiembros  Grupos de UsuariosGrupos de Usuarios  RegistrarseRegistrarse  Conectarse  

Comparte | 
 

 Sassafras Roots

Ir abajo 
AutorMensaje
GreenDayFanVzla
Admin
avatar

Mensajes : 561
Fecha de inscripción : 28/05/2010
Edad : 118
Localización : Venezuela

MensajeTema: Sassafras Roots   Lun Feb 18, 2013 1:58 pm

Tuning down half a step

Intro
e|----------------|
B|----------------|
G|-7~~------------|
D|-7~~--7~~--2~~--|
A|-5~~--7~~--2~~--|
E|------5~~--0~~--|

Verse
e|-------------------------------------------|
B|-------------------------------------------|
G|-----------9-7-6-7-7-7-7-7-----------------|
D|-7-7-7-7-7-9-7-6-7-7-7-7-7-2-2-2-2-2-2-2-2-|
A|-7-7-7-7-7-7-5-4-5-5-5-5-5-2-2-2-2-2-2-2-2-|
E|-5-5-5-5-5-----------------0-0-0-0-0-0-0-0-|

Chorus
e|------------------------------------------------------------------------|
B|------------------------------------------------------------------------|
G|-7-7-7-7-------------7-7-7-7--------------7~----------------------------|
D|-7-7-7-7-2-2-2-2-2-2-7-7-7-7-2-2-2-2-2-2--7~-----7~-----2-2-2-2-2-2-2-2-|
A|-5-5-5-5-2-2-2-2-2-2-5-5-5-5-2-2-2-2-2-2--5~--5--7~-----2-2-2-2-2-2-2-2-|
E|---------0-0-0-0-0-0---------0-0-0-0-0-0---------5~--5--0-0-0-0-0-0-0-0-|
PM ***************

e|-----------------|
B|-----------------|
G|-----------------|
D|-2-2-2-2-2-2-2-2-|
A|-2-2-2-2-2-2-2-2-|
E|-0-0-0-0-0-0-0-0-|
PM ***************

Bridge
e|--------------------------------------------------------------------|
B|--------------------------------------------------------------------|
G|-----------7-7-7-7-7-7------------7-7-7-7-7-7-----------7-7-7-7-7-7-|
D|-4-4-4-4-4-7-7-7-7-7-7--4-4-4-4-4-7-7-7-7-7-7-4-4-4-4-4-7-7-7-7-7-7-|
A|-4-4-4-4-4-5-5-5-5-5-5--4-4-4-4-4-5-5-5-5-5-5-4-4-4-4-4-5-5-5-5-5-5-|
E|-2-2-2-2-2--------------2-2-2-2-2-------------2-2-2-2-2-------------|

e|---------------------------------|
B|---------------------------------|
G|-9-9-9-9-9-9-9-9-9-9-9-9-9-9-9-9-|
D|-9-9-9-9-9-9-9-9-9-9-9-9-9-9-9-9-|
A|-7-7-7-7-7-7-7-7-7-7-7-7-7-7-7-7-|
E|---------------------------------|
Volver arriba Ir abajo
Ver perfil de usuario http://greendayvzla.forumsmotion.com
 
Sassafras Roots
Volver arriba 
Página 1 de 1.
 Temas similares
-
» Muddy Roots Music (The Book)
» ¿sepultura o soulfly?
» Black Metal: European Roots & Musical Extremities (Libro)

Permisos de este foro:No puedes responder a temas en este foro.
Green Day Fan Venezuela :: Green Day :: Música, Videos, Letras, Imagenes y algo más :: Tablaturas de Guitarra :: Dookie-
Cambiar a: