Green Day Fan Venezuela

Punto de Reunión para todos los fans de Green Day Venezolanos!
 
ÍndiceÍndice  CalendarioCalendario  GaleríaGalería  FAQFAQ  MiembrosMiembros  Grupos de UsuariosGrupos de Usuarios  RegistrarseRegistrarse  Conectarse  

Comparte | 
 

 When I Come Around

Ir abajo 
AutorMensaje
GreenDayFanVzla
Admin
avatar

Mensajes : 561
Fecha de inscripción : 28/05/2010
Edad : 118
Localización : Venezuela

MensajeTema: When I Come Around   Lun Feb 18, 2013 2:00 pm

Tuning: half a step down

Intro
E|------|--------------------------|-------------|
B|------|--------------------------|----8-----5--|
G|----0-|-------------------7------|----9-----5--|
D|-x--0-|------5-------7-7--7--7-7-|-9--9--9--5--|
A|-x----|-5-5--5--5-5--5-5--5--5-5-|-7--7--7--3--|
E|-x----|-3-3--3--3-3--------------|-------------|
PM *** ********* ******* *

Verse
E|--------------------------|-------------------------|
B|--------------------------|----8-----5-----5--------|
G|-------------------7------|----9-----5-----5--------|
D|------5-------7-7--7--7-7-|-9--9--9--5-----5--7-7---|
A|-5-5--5--5-5--5-5--5--5-5-|-7--7--7--3-----3--5-5---|
E|-3-3--3--3-3--------------|-------------------------|
PM *** ******** ******* * ***

Chorus
E|-------------------|-----------------|------------------|-----------|
B|-------------------|-5-5-5-5-5-5-5-5-|------------------|-5-5-5-5-5-|
G|-2-2-2-2-2-2-2-2-2-|-5-5-5-5-5-5-5-5-|-2-2-2-2--2-2-2---|-5-5-5-5-5-|
D|-2-2-2-2-2-2-2-2-2-|-5-5-5-5-5-5-5-5-|-2-2-2-2--2-2-2-2-|-5-5-5-5-5-|
A|-0-0-0-0-0-0-0-0-0-|-3-3-3-3-3-3-3-3-|-0-0-0-0--0-0-0-0-|-3-3-3-3-3-|
E|-------------------|-----------------|------------------|-----------|

Solo (there are two tracks in the guitar solo here they are
Guitar 1
E|--------------------------|-------------------------|
B|--------------------------|----8-----5-----5--------|
G|-------------------7------|----9-----5-----5--------|
D|------5-------7-7--7--7-7-|-9--9--9--5-----5--7-7---|
A|-5-5--5--5-5--5-5--5--5-5-|-7--7--7--3-----3--5-5---|
E|-3-3--3--3-3--------------|-------------------------|
PM *** ******** ******* * ***

Guitar 2
E|--3------------5------------|-3--3-----5---3--3--3--3-|-3--3-3--5--5-|
B|-----3-----3------3-------3-|-3--3-----3---3--3--3--3-|-3--3-3--3--3-|
G|--------0-------------0-----|-0--0--0--0---0--0--0--0-|-0--0-0--0--0-|
D|----------------------------|-------------------------|--------------|
A|----------------------------|-------------------------|--------------|
E|----------------------------|-------------------------|--------------|

Guitar 1
E|--------------------------|-------------------------|
B|--------------------------|----8-----5-----5--------|
G|-------------------7------|----9-----5-----5--------|
D|------5-------7-7--7--7-7-|-9--9--9--5-----5--7-7---|
A|-5-5--5--5-5--5-5--5--5-5-|-7--7--7--3-----3--5-5---|
E|-3-3--3--3-3--------------|-------------------------|
PM *** ******** ******* * ***

Guitar 2
E|-5--5--3--3--3--3--3-|---------------------------------------------|
B|-3--3--3--3--3--3--3-|-------5----5-----5------/15-----------------|
G|-0--0--0--0--0--0--0-|-/4----4----4---4h5--------------------------|
D|---------------------|---------------------------------------------|
A|---------------------|---------------------------------------------|
E|---------------------|---------------------------------\12---------|

Outro
E|--------------------------|----------------------|
B|--------------------------|----8-----5-----------|
G|-------------------7------|----9-----5-----------|
D|------5-------7-7--7--7-7-|-9--9--9--5-----------|
A|-5-5--5--5-5--5-5--5--5-5-|-7--7--7--3-----------|
E|-3-3--3--3-3--------------|----------------------|
PM *** ******** ******* *
Volver arriba Ir abajo
Ver perfil de usuario http://greendayvzla.forumsmotion.com
 
When I Come Around
Volver arriba 
Página 1 de 1.

Permisos de este foro:No puedes responder a temas en este foro.
Green Day Fan Venezuela :: Green Day :: Música, Videos, Letras, Imagenes y algo más :: Tablaturas de Guitarra :: Dookie-
Cambiar a: