Green Day Fan Venezuela

Punto de Reunión para todos los fans de Green Day Venezolanos!
 
ÍndiceÍndice  CalendarioCalendario  GaleríaGalería  FAQFAQ  MiembrosMiembros  Grupos de UsuariosGrupos de Usuarios  RegistrarseRegistrarse  Conectarse  

Comparte | 
 

 Coming Clean

Ir abajo 
AutorMensaje
GreenDayFanVzla
Admin
avatar

Mensajes : 561
Fecha de inscripción : 28/05/2010
Edad : 118
Localización : Venezuela

MensajeTema: Coming Clean   Lun Feb 18, 2013 2:00 pm

Tuning: Standard

Intro
E|--------------------------------------|
B|--------------------------------------|
G|--------------------------------------|
D|-8~~---5~~----------------------------|
A|-8~~---5~~----------------------------|
E|-6~~---3~~----------------------------|

Verse
E|--------------------------------------|
B|--------------------------------------|
G|-4-x-4-x-4-4-4-4-4--------------------|
D|-4-x-4-x-4-4-4-4-4--6-x-6-x-6-6-6-6-6-|
A|-2-x-2-x-2-2-2-2-2--6-x-6-x-6-6-6-6-6-|
E|--------------------4-x-4-x-4-4-4-4-4-|

Chorus
E|------------------------------------------------------------------|
B|------------------------------------------------------------------|
G|------------------------------------------------------------------|
D|-4-4-4-4-4-4-4-4-4-4-4-4-4-4-4-4--2-2-2-2-2-2-2-2-2-2-2-2-2-2-2-2-|
A|-4-4-4-4-4-4-4-4-4-4-4-4-4-4-4-4--2-2-2-2-2-2-2-2-2-2-2-2-2-2-2-2-|
E|-2-2-2-2-2-2-2-2-2-2-2-2-2-2-2-2--0-0-0-0-0-0-0-0-0-0-0-0-0-0-0-0-|

Bridge
e|------------------------------------------------------------------------------|
B|-7--7-7--7--7--7-7---4--5-4--4--4--5-4--7--7-7--7--7--7-7---4--5-4--4--4--5-4-|
G|-8--8-8--8--8--8-8---4--4-4--4--4--4-4--8--8-8--8--8--8-8---4--4-4--4--4--4-4-|
D|-9--9-9--9--9--9-9----------------------9--9-9--9--9--9-9---------------------|
A|------------------------------------------------------------------------------|
E|------------------------------------------------------------------------------|

e|---------------------------------------------------------------------------------|
B|---------------------------------------------------------------------------------|
G|---------6--------9----------6--------9----------6--------9----------6--------9--|
D|-8--9-9----9-8-9--9--8--9-9----9-8-9--9--8--9-9----9-8-9--9--8--9-9----9-8-9--9--|
A|------------------7-------------------7-------------------7-------------------7--|
E|---------------------------------------------------------------------------------|

Outro
E|--------------------------------------|
B|--------------------------------------|
G|--------------------------------------|
D|-8~~---5#-----------------------------|
A|-8~~---5#-----------------------------|
E|-6~~---3#-----------------------------|
]
Volver arriba Ir abajo
Ver perfil de usuario http://greendayvzla.forumsmotion.com
 
Coming Clean
Volver arriba 
Página 1 de 1.
 Temas similares
-
» SHOTGUN MESSIAH - SECOND COMING
» FUERTEVENTURA de Russian Red
» GOT: Chistes de Ned Stark
» The Modulators - Tomorrow´s coming
» Entre la espada y la pared (Nick y tu) (Drama, romantica y hot)

Permisos de este foro:No puedes responder a temas en este foro.
Green Day Fan Venezuela :: Green Day :: Música, Videos, Letras, Imagenes y algo más :: Tablaturas de Guitarra :: Dookie-
Cambiar a: