Green Day Fan Venezuela

Punto de Reunión para todos los fans de Green Day Venezolanos!
 
ÍndiceÍndice  CalendarioCalendario  GaleríaGalería  FAQFAQ  MiembrosMiembros  Grupos de UsuariosGrupos de Usuarios  RegistrarseRegistrarse  Conectarse  

Comparte | 
 

 Emenius Sleepus

Ir abajo 
AutorMensaje
GreenDayFanVzla
Admin
avatar

Mensajes : 561
Fecha de inscripción : 28/05/2010
Edad : 118
Localización : Venezuela

MensajeTema: Emenius Sleepus   Lun Feb 18, 2013 2:01 pm

Tuning standard

Intro/Verse
e|---------------|---------------|-----------------------------|
B|---------------|---------------|-----------------------------|
G|-4-4-4---------|-4-4-4---------|-4-4-4----------2-2-2--------|
D|-4-4-4-2-2-2-2-|-4-4-4-2-2-2-2-|-4-4-4-2-2-2-2--2-2-2--4-444-|
A|-2-2-2-2-2-2-2-|-2-2-2-2-2-2-2-|-2-2-2-2-2-2-2--0-0-0--4-444-|
E|-------0-0-0-0-|-------0-0-0-0-|-------0-0-0-0---------2-222-|

Chorus
e|------------------------|
B|------------------------|
G|------------------------|
D|-2-2-2-2-2--4-4-4-4-4-4-|
A|-2-2-2-2-2--4-4-4-4-4-4-|
E|-0-0-0-0-0--2-2-2-2-2-2-|

Bridge
e|-----------------------------------------------------------------|
B|-----------5---------------5---------------5---------------------|
G|-8~----6~---6-6--8~----6~---6-6--8~----6~---6-6-----8~----6~-----|
D|-9~----7~----7---9~----7~----7---9~----7~----7------9~----7~---4-|
A|-9~----7~--------9~----7~--------9~----7~-----------9~----7~---4-|
E|-7~----5~--------7~----5~--------7~----5~-----------7~----5~---2-|

End
e|-------|
B|-------|
G|-------|
D|--7----|
A|--7----|
E|--5----|
Volver arriba Ir abajo
Ver perfil de usuario http://greendayvzla.forumsmotion.com
 
Emenius Sleepus
Volver arriba 
Página 1 de 1.

Permisos de este foro:No puedes responder a temas en este foro.
Green Day Fan Venezuela :: Green Day :: Música, Videos, Letras, Imagenes y algo más :: Tablaturas de Guitarra :: Dookie-
Cambiar a: