Green Day Fan Venezuela

Punto de Reunión para todos los fans de Green Day Venezolanos!
 
ÍndiceÍndice  CalendarioCalendario  GaleríaGalería  FAQFAQ  MiembrosMiembros  Grupos de UsuariosGrupos de Usuarios  RegistrarseRegistrarse  Conectarse  

Comparte | 
 

 In The End

Ir abajo 
AutorMensaje
GreenDayFanVzla
Admin
avatar

Mensajes : 561
Fecha de inscripción : 28/05/2010
Edad : 118
Localización : Venezuela

MensajeTema: In The End   Lun Feb 18, 2013 2:03 pm

Tuning: half a step down

Verse
e|-----------------------------------------------------------------------|
B|-----------------------------------------------------------------------|
G|-----------------------------------------------------------------------|
D|-7-7-7-7--5-5-5-5--7-7-7-7--5-5-5-5--7-7-7-7--5-5-5-5--7-7-7-7--5-5-5-5|
A|-7-7-7-7--5-5-5-5--7-7-7-7--5-5-5-5--7-7-7-7--5-5-5-5--7-7-7-7--5-5-5-5|
E|-5-5-5-5--3-3-3-3--5-5-5-5--3-3-3-3--5-5-5-5--3-3-3-3--5-5-5-5--3-3-3-3|

e|-----------------------------------------------------------------------|
B|-----------------------------------------------------------------------|
G|-----------------------------------------------------------------------|
D|-7-7-7-7--5-5-5-5--7-7-7-7--5-5-5-5--7-7-7-7--5-5-5-5--7-7-7-7-7-7-7-7-|
A|-7-7-7-7--5-5-5-5--7-7-7-7--5-5-5-5--7-7-7-7--5-5-5-5--7-7-7-7-7-7-7-7-|
E|-5-5-5-5--3-3-3-3--5-5-5-5--3-3-3-3--5-5-5-5--3-3-3-3--5-5-5-5-5-5-5-5-|

Chorus
e|-----------------------------------------------------------------------|
B|-----------------------------------------------------------------------|
G|-7-7-7-7-7-7-7-7--9-9-9-9-9-9-9-9--------------------------------------|
D|-7-7-7-7-7-7-7-7--9-9-9-9-9-9-9-9--7-7-7-7--4-4-4-4--4--7-7-7-7-7-7-7-7|
A|-5-5-5-5-5-5-5-5--7-7-7-7-7-7-7-7--7-7-7-7--4-4-4-4--4--7-7-7-7-7-7-7-7|
E|-----------------------------------5-5-5-5--2-2-2-2--2--5-5-5-5-5-5-5-5|

Chorus part 2
e|------------------------------------|
B|------------------------------------|
G|------------------------------------|
D|-7-7-7-7--5-5-5-5--7-7-7-7--5-5-5-5-|
A|-7-7-7-7--5-5-5-5--7-7-7-7--5-5-5-5-|
E|-5-5-5-5--3-3-3-3--5-5-5-5--3-3-3-3-|

Interlude
e|----------------------------|
B|----------------------------|
G|----------------------------|
D|----------------------------|
A|------4-----------5---------|
E|--5-------5---3-------3-----|
Volver arriba Ir abajo
Ver perfil de usuario http://greendayvzla.forumsmotion.com
 
In The End
Volver arriba 
Página 1 de 1.

Permisos de este foro:No puedes responder a temas en este foro.
Green Day Fan Venezuela :: Green Day :: Música, Videos, Letras, Imagenes y algo más :: Tablaturas de Guitarra :: Dookie-
Cambiar a: