Green Day Fan Venezuela

Punto de Reunión para todos los fans de Green Day Venezolanos!
 
ÍndiceÍndice  CalendarioCalendario  GaleríaGalería  FAQFAQ  MiembrosMiembros  Grupos de UsuariosGrupos de Usuarios  RegistrarseRegistrarse  Conectarse  

Comparte | 
 

 F.O.D

Ir abajo 
AutorMensaje
GreenDayFanVzla
Admin
avatar

Mensajes : 561
Fecha de inscripción : 28/05/2010
Edad : 118
Localización : Venezuela

MensajeTema: F.O.D    Lun Feb 18, 2013 2:04 pm

Tuning: half a step down

Verse
e|----------------------------------------------|
b|-----------------------------------=----------|
g|----------------------------------------------|
d|--7-7-7-7-7-7-7--7-7-7-7-7-7-7--7-7-7-7-7-7-7-|
a|--7-7-7-7-7-7-7--7-7-7-7-7-7-7--7-7-7-7-7-7-7-|
e|--5-5-5-5-5-5-5--5-5-5-5-5-5-5--5-5-5-5-5-5-5-|
(Something's on my mind, its been so for some time)

e|-----------------------------------------------|
b|-----------------------------------------------|
g|-----------------------------------------------|
d|--5-5-5-5-5-5-5--5-5-5-5-5-5-5--5-5-5-5-5-5-5--|
a|--5-5-5-5-5-5-5--5-5-5-5-5-5-5--5-5-5-5-5-5-5--|
e|--3-3-3-3-3-3-3--3-3-3-3-3-3-3--3-3-3-3-3-3-3--|
(Its time im on to you)

Chorus
E|-------------------------------------------------------------------------------|
B|-------------------------------------------------------------------------------|
G|--9-9-9-9-------------7-7-7-7----------------9-9-9-9-----------7-7-7-7-7-7-7-7-|
D|--9-9-9-9--5-5-5-5-5--7-7-7-7--7-7-7-7-7-7---9-9-9-9--5-5-5-5--7-7-7-7-7-7-7-7-|
A|--7-7-7-7--5-5-5-5-5--5-5-5-5--7-7-7-7-7-7---7-7-7-7--5-5-5-5--5-5-5-5-5-5-5-5-|
E|-----------3-3-3-3-3-----------5-5-5-5-5-5------------3-3-3-3------------------|

Fill 1
E|-----------------------|
B|-----------------------|
G|-7-7-7-7-7-7-7-7-7-7-7-|
D|-7-7-7-7-7-7-7-7-7-7-7-|
A|-5-5-5-5-5-5-5-5-5-5-5-|
E|-----------------------|
("to say.. to say..")

Interlude
e|--------------------------|
b|--------------------------|
g|--7-7-x-------7-7-x-------|
d|--7-7-x-7-7-7-7-7-x-5-5-5-|
a|--5-5-x-7-7-7-5-5-x-5-5-5-|
e|--------5-5-5-------3-3-3-|
Volver arriba Ir abajo
Ver perfil de usuario http://greendayvzla.forumsmotion.com
 
F.O.D
Volver arriba 
Página 1 de 1.

Permisos de este foro:No puedes responder a temas en este foro.
Green Day Fan Venezuela :: Green Day :: Música, Videos, Letras, Imagenes y algo más :: Tablaturas de Guitarra :: Dookie-
Cambiar a: