Green Day Fan Venezuela

Punto de Reunión para todos los fans de Green Day Venezolanos!
 
ÍndiceÍndice  CalendarioCalendario  GaleríaGalería  FAQFAQ  MiembrosMiembros  Grupos de UsuariosGrupos de Usuarios  RegistrarseRegistrarse  Conectarse  

Comparte | 
 

 Poprocks And Coke

Ir abajo 
AutorMensaje
GreenDayFanVzla
Admin
avatar

Mensajes : 561
Fecha de inscripción : 28/05/2010
Edad : 118
Localización : Venezuela

MensajeTema: Poprocks And Coke   Mar Mar 19, 2013 10:52 am

|
Intro
|Guitar 1 only
e|--------------------------------------------|
B|-2-x-2-2-x-2-2-2-2-2---2-x-2-2-x-2-2-2--9-9-|
G|-2-x-2-2-x-2-2-2-2-2---2-x-2-2-x-2-2-2--9-9-|
D|-2-x-2-2-x-2-2-2-2-2---2-x-2-2-x-2-2-2--9-9-|
A|-0-x-0-0-x-0-0-0-0-0---0-x-0-0-x-0-0-0--7-7-|
E|--------------------------------------------|

|Verse part 1
|Guitar 1 only
e|----------------------------------------------------------------------------------|
B|2-x-2-2-x-2-2-2-2-2--7-x-7-7-x-7-7-7-7-7--2-x-2-2-x-2-2-2-2-2--9-x-9-9-x-9-9-9-9-9|
G|2-x-2-2-x-2-2-2-2-2--7-x-7-7-x-7-7-7-7-7--2-x-2-2-x-2-2-2-2-2--9-x-9-9-x-9-9-9-9-9|
D|2-x-2-2-x-2-2-2-2-2--7-x-7-7-x-7-7-7-7-7--2-x-2-2-x-2-2-2-2-2--9-x-9-9-x-9-9-9-9-9|
A|0-x-0-0-x-0-0-0-0-0--5-x-5-5-x-5-5-5-5-5--0-x-0-0-x-0-0-0-0-0--7-x-7-7-x-7-7-7-7-7|
E|----------------------------------------------------------------------------------|
e|---------------------|--------------------|
B|-7-x-7-7-x-7-7-7-7-7-|2-x-2-2-x-2-2-2-2-2-|
G|-7-x-7-7-x-7-7-7-7-7-|2-x-2-2-x-2-2-2-2-2-|
D|-7-x-7-7-x-7-7-7-7-7-|2-x-2-2-x-2-2-2-2-2-|
A|-5-x-5-5-x-5-5-5-5-5-|0-x-0-0-x-0-0-0-0-0-|
E|---------------------|--------------------|

|Verse part 2
|Guitar 1
e|----------------------------------------------------------------------------------|
B|2-x-2-2-x-2-2-2-2-2--7-x-7-7-x-7-7-7-7-7--2-x-2-2-x-2-2-2-2-2--9-x-9-9-x-9-9-9-9-9|
G|2-x-2-2-x-2-2-2-2-2--7-x-7-7-x-7-7-7-7-7--2-x-2-2-x-2-2-2-2-2--9-x-9-9-x-9-9-9-9-9|
D|2-x-2-2-x-2-2-2-2-2--7-x-7-7-x-7-7-7-7-7--2-x-2-2-x-2-2-2-2-2--9-x-9-9-x-9-9-9-9-9|
A|0-x-0-0-x-0-0-0-0-0--5-x-5-5-x-5-5-5-5-5--0-x-0-0-x-0-0-0-0-0--7-x-7-7-x-7-7-7-7-7|
E|----------------------------------------------------------------------------------|
|Guitar 2
e|----------------------------------------------------------------------------------|
B|----------------------------------------------------------------------------------|
G|---------------------7-x-7-7-x-7-7-7-7-7-----------------------9-x-9-9-x-9-9-9-9-9|
D|7-x-7-7-x-7-7-7-7-7--7-x-7-7-x-7-7-7-7-7--7-x-7-7-x-7-7-7-7-7--9-x-9-9-x-9-9-9-9-9|
A|7-x-7-7-x-7-7-7-7-7--5-x-5-5-x-5-5-5-5-5--7-x-7-7-x-7-7-7-7-7--7-x-7-7-x-7-7-7-7-7|
E|5-x-5-5-x-5-5-5-5-5-----------------------5-x-5-5-x-5-5-5-5-5---------------------|

|Guitar 1
e|---------------------|--------------------|--------------------0-|
B|-7-x-7-7-x-7-7-7-7-7-|2-x-2-2-x-2-2-2-2-2-|-2-x-2-2-x-2-2-2--2-0-|
G|-7-x-7-7-x-7-7-7-7-7-|2-x-2-2-x-2-2-2-2-2-|-2-x-2-2-x-2-2-2--2-1-|
D|-7-x-7-7-x-7-7-7-7-7-|2-x-2-2-x-2-2-2-2-2-|-2-x-2-2-x-2-2-2--2-2-|
A|-5-x-5-5-x-5-5-5-5-5-|0-x-0-0-x-0-0-0-0-0-|-0-x-0-0-x-0-0-0--0-2-|
E|---------------------|--------------------|--------------------0-|
|Guitar 2
e|---------------------|--------------------|----------------------|
B|---------------------|--------------------|----------------------|
G|-7-x-7-7-x-7-7-7-7-7-|--------------------|-2-x-2-2-x-2-2-2--2-1-|
D|-7-x-7-7-x-7-7-7-7-7-|7-x-7-7-x-7-7-7-7-7-|-2-x-2-2-x-2-2-2--2-2-|
A|-5-x-5-5-x-5-5-5-5-5-|7-x-7-7-x-7-7-7-7-7-|-0-x-0-0-x-0-0-0--0-2-|
E|---------------------|5-x-5-5-x-5-5-5-5-5-|--------------------0-|

|Chorus
|Guitar 1
e|----------0-0-0----------------------------------------------------|
B|----------0-0-0--7----9-9-9-9--7-7-7-7--7----9-9-9-9--7-7-7-7-7-9#-|
G|----------1-1-1--7-6--9-9-9-9--7-7-7-7--7-6--9-9-9-9--7-7-7-7-7-9#-|
D|-4-4-4-4--2-2-2--7-7--9-9-9-9--7-7-7-7--7-7--9-9-9-9--7-7-7-7-7-9#-|
A|-4-4-4-4--2-2-2--5-7--7-7-7-7--5-5-5-5--5-7--7-7-7-7--5-5-5-5-5-7#-|
E|-2-2-2-2--0-0-0----5----------------------5------------------------|
|Guitar 2
e|-2-2-2-2-----------------------------------------------------------|
B|-2-2-2-2-----------------------------------------------------------|
G|-3-3-3-3--1-1-1--7----9-9-9-9--7-7-7-7--7----9-9-9-9--7-7-7-7-7-9#-|
D|-4-4-4-4--2-2-2--7-7--9-9-9-9--7-7-7-7--7-7--9-9-9-9--7-7-7-7-7-9#-|
A|-4-4-4-4--2-2-2--5-7--7-7-7-7--5-5-5-5--5-7--7-7-7-7--5-5-5-5-5-7#-|
E|-2-2-2-2--0-0-0----5----------------------5------------------------|

|Post Chorus
|Guitar 1
e|-----------------------------------------------|
B|-2-x-2-2-x-2-2-2-2-2---2-x-2-2-x-2-2-2--9-9--2-|
G|-2-x-2-2-x-2-2-2-2-2---2-x-2-2-x-2-2-2--9-9--2-|
D|-2-x-2-2-x-2-2-2-2-2---2-x-2-2-x-2-2-2--9-9--2-|
A|-0-x-0-0-x-0-0-0-0-0---0-x-0-0-x-0-0-0--7-7--0-|
E|-----------------------------------------------|
|Guitar 1
e|-----------------------------------------------|
B|-----------------------------------------------|
G|----------------------------------------9-9----|
D|-7-x-7-7-x-7-7-7-7-7---7-x-7-7-x-7-7-7--9-9--7-|
A|-7-x-7-7-x-7-7-7-7-7---7-x-7-7-x-7-7-7--7-7--7-|
E|-5-x-5-5-x-5-5-5-5-5---5-x-5-5-x-5-5-5-------5-|

|Pre Verse
|Guitar 2 only
e|----------------------------------|
B|----------------------------------|
G|----------------------------------|
D|-7-7-7-7-7-7-7-7--7-7-7-7-7-7-7-7-|
A|-7-7-7-7-7-7-7-7--7-7-7-7-7-7-7-7-|
E|-5-5-5-5-5-5-5-5--5-5-5-5-5-5-5-5-|
PM *************** ***************

|Verse 2
|Guitar 3 only
e|-----------------------------------------------------------------------------------|
B|-----------------------------------------------------------------------------------|
G|-7-x-7-7-x-7-7-7-7-7--6-x-6-6-x-6-6-6-6-6--9-x-9-9-x-9-9-9-9-9--7-x-7-7-x-7-7-7-7-7|
D|-7-x-7-7-x-7-7-7-7-7--7-x-7-7-x-7-7-7-7-7--9-x-9-9-x-9-9-9-9-9--7-x-7-7-x-7-7-7-7-7|
A|-5-x-5-5-x-5-5-5-5-5--7-x-7-7-x-7-7-7-7-7--7-x-7-7-x-7-7-7-7-7--5-x-5-5-x-5-5-5-5-5|
E|----------------------5-x-5-5-x-5-5-5-5-5------------------------------------------|
e|--------------------0-|
B|------------------2-0-|
G|-2-x-2-2-x-2-2-2--2-1-|
D|-2-x-2-2-x-2-2-2--2-2-|
A|-0-x-0-0-x-0-0-0--0-2-|
E|--------------------0-|

|Chorus 2
|Guitar 3 only
e|----------0-0-0----------------------------------------------------|
B|----------0-0-0----------------------------------------------------|
G|----------1-1-1--7-6--9-9-9-9--7-7-7-7--7-6--9-9-9-9--7-7-7-7-7-9#-|
D|-4-4-4-4--2-2-2--7-7--9-9-9-9--7-7-7-7--7-7--9-9-9-9--7-7-7-7-7-9#-|
A|-4-4-4-4--2-2-2--5-7--7-7-7-7--5-5-5-5--5-7--7-7-7-7--5-5-5-5-5-7#-|
E|-2-2-2-2--0-0-0----5----------------------5------------------------|

|Bridge
|Guitar 3 only
e|-----------------------------------------0-|
B|-----------------------2-x-2-2-x-2-2-2-2-0-|
G|-6-x-6-6-x-6-6-6-6-6---2-x-2-2-x-2-2-2-2-1-|
D|-7-x-7-7-x-7-7-7-7-7---2-x-2-2-x-2-2-2-2-2-|
A|-7-x-7-7-x-7-7-7-7-7---0-x-0-0-x-0-0-0-0-2-|
E|-5-x-5-5-x-5-5-5-5-5---------------------0-|

|Interlude
|Guitar 3 only
e|-2-x-2-2-x-2-2-2-2-2-2--0-------------------------------------------------|
B|-2-x-2-2-x-2-2-2-2-2-2--0-------------------------------------------------|
G|-3-x-3-3-x-3-3-3-3-3-3--1--6-x-6-6-x-6-6-6-6-6-6--7-x-7-7-x-7-7-7-7-7-7-6-|
D|-4-x-4-4-x-4-4-4-4-4-4--2--7-x-7-7-x-7-7-7-7-7-7--7-x-7-7-x-7-7-7-7-7-7-6-|
A|-4-x-4-4-x-4-4-4-4-4-4--2--7-x-7-7-x-7-7-7-7-7-7--5-x-5-5-x-5-5-5-5-5-5-4-|
E|-2-x-2-2-x-2-2-2-2-2-2--0--5-x-5-5-x-5-5-5-5-5-5--------------------------|

e|-------------------------2-x-2-2-x-2-2-2-2-2-2--0------------------------|
B|-------------------------2-x-2-2-x-2-2-2-2-2-2--0------------------------|
G|-6-x-6-6-x-6-6-6-6-6-6---3-x-3-3-x-3-3-3-3-3-3--1--2-x-2-2-x-2-2-2-2-2-2-|
D|-7-x-7-7-x-7-7-7-7-7-7---4-x-4-4-x-4-4-4-4-4-4--2--2-x-2-2-x-2-2-2-2-2-2-|
A|-7-x-7-7-x-7-7-7-7-7-7---4-x-4-4-x-4-4-4-4-4-4--2--0-x-0-0-x-0-0-0-0-0-0-|
E|-5-x-5-5-x-5-5-5-5-5-5---2-x-2-2-x-2-2-2-2-2-2--0------------------------|

e|---------------------------------------------------------------------0-|
B|---------------------------------------------------------------------0-|
G|-7-7-7-7-7-7-7-7--7-7-7-7-7-7-7-7--6-6-6-6-6-6-6-6--7-7-7-7-7-7-7-7--1-|
D|-7-7-7-7-7-7-7-7--7-7-7-7-7-7-7-7--7-7-7-7-7-7-7-7--7-7-7-7-7-7-7-7--2-|
A|-5-5-5-5-5-5-5-5--5-5-5-5-5-5-5-5--5-5-5-5-5-5-5-5--5-5-5-5-5-5-5-5--2-|
E|---------------------------------------------------------------------0-|

|lead lick
|Guitar 1 only
e|-----------| (played during the
B|-10~~--9~~-| last D chord at the
G|-----------| end of the Interlude)
D|-----------|
A|-----------| D Chord = |x577xx|
E|-----------|

|Verse 3
|Guitar 3
e|----------------------------------------------------------------|
B|----------------------------------------------------------------|
G|--7-x-7-7-x-7-7-7-7-7--6-x-6-6-x-6-6-6-6-6--9-x-9-9-x-9-9-9-9-9-|
D|--7-x-7-7-x-7-7-7-7-7--7-x-7-7-x-7-7-7-7-7--9-x-9-9-x-9-9-9-9-9-|
A|--5-x-5-5-x-5-5-5-5-5--7-x-7-7-x-7-7-7-7-7--7-x-7-7-x-7-7-7-7-7-|
E|-----------------------5-x-5-5-x-5-5-5-5-5----------------------|

e|-----------------------------------------0-|
B|---------------------------------------2-0-|
G|-7-x-7-7-x-7-7-7-7-7--6-x-6-6-x-6-6-6--2-1-|
D|-7-x-7-7-x-7-7-7-7-7--7-x-7-7-x-7-7-7--2-2-|
A|-5-x-5-5-x-5-5-5-5-5--7-x-7-7-x-7-7-7--0-2-|
E|----------------------5-x-5-5-x-5-5-5----0-|

|Chorus 2
|Guitar 3 only
e|----------0-0-0---------------------------------------------------|
B|----------0-0-0---------------------------------------------------|
G|----------1-1-1--7-6--9-9-9-9--7-7-7-7--7-6--9-9-9-9--7-7-7-7-7-7-|
D|-4-4-4-4--2-2-2--7-7--9-9-9-9--7-7-7-7--7-7--9-9-9-9--7-7-7-7-7-7-|
A|-4-4-4-4--2-2-2--5-7--7-7-7-7--5-5-5-5--5-7--7-7-7-7--5-5-5-5-5-5-|
E|-2-2-2-2--0-0-0----5----------------------5-----------------------|
E|-------------------------------------|
B|-------------------------------------|
G|-6-9--9-9-9-9-9-9-9-9--9-9-9-9-9-9-9-|
D|-7-9--9-9-9-9-9-9-9-9--9-9-9-9-9-9-9-|
A|-7-7--7-7-7-7-7-7-7-7--7-7-7-7-7-7-7-|
E|-5-----------------------------------|

|Outro
|Guitar 1
e|----------------------------------------------------------------------|
B|-2-x-2-2-x-2-2-2--9-9---2-x-2-2-x-2-2-2--9-9---2-x-2-2-x-2-2-2--9-9-2-|
G|-2-x-2-2-x-2-2-2--9-9---2-x-2-2-x-2-2-2--9-9---2-x-2-2-x-2-2-2--9-9-2-|
D|-2-x-2-2-x-2-2-2--9-9---2-x-2-2-x-2-2-2--9-9---2-x-2-2-x-2-2-2--9-9-2-|
A|-0-x-0-0-x-0-0-0--7-7---0-x-0-0-x-0-0-0--7-7---0-x-0-0-x-0-0-0--7-7-0-|
E|----------------------------------------------------------------------|
Volver arriba Ir abajo
Ver perfil de usuario http://greendayvzla.forumsmotion.com
 
Poprocks And Coke
Volver arriba 
Página 1 de 1.
 Temas similares
-
» COKE BELDA - COKE BELDA I (2013)

Permisos de este foro:No puedes responder a temas en este foro.
Green Day Fan Venezuela :: Green Day :: Música, Videos, Letras, Imagenes y algo más :: Tablaturas de Guitarra :: International Superhits!-
Cambiar a: