Green Day Fan Venezuela

Punto de Reunión para todos los fans de Green Day Venezolanos!
 
ÍndiceÍndice  CalendarioCalendario  GaleríaGalería  FAQFAQ  MiembrosMiembros  Grupos de UsuariosGrupos de Usuarios  RegistrarseRegistrarse  Conectarse  

Comparte | 
 

 Ha Ha You're Dead

Ir abajo 
AutorMensaje
Samanta_L
Admin


Mensajes : 32
Fecha de inscripción : 14/06/2010

MensajeTema: Ha Ha You're Dead    Sáb Mar 23, 2013 12:01 pm

INTRO (play 2x)
==================

Palm-muted

e|---------|---------|---------|---------|---------|---------|---------|---------|
B|---------|---------|---------|---------|---------|---------|---------|---------|
G|-5-5-5-5-|-5-5-5-5-|---------|---------|---------|---------|---------|---------|
D|-5-5-5-5-|-5-5-5-5-|-5-5-5-5-|-5-5-5-5-|-7-7-7-7-|-7-7-7-7-|-7-7-7-7-|-7-7-7-7-|
A|-3-3-3-3-|-3-3-3-3-|-5-5-5-5-|-5-5-5-5-|-7-7-7-7-|-7-7-7-7-|-7-7-7-7-|-7-7-7-7-|
E|---------|---------|-3-3-3-3-|-3-3-3-3-|-5-5-5-5-|-5-5-5-5-|-5-5-5-5-|-5-5-5-5-|



VERSE (play 4x)
=================

Palm-muted

e|---------|---------|---------|---------|---------|---------|---------|---------|
B|---------|---------|---------|---------|---------|---------|---------|---------|
G|-5-5-5-5-|-5-5-5-5-|---------|---------|---------|---------|---------|---------|
D|-5-5-5-5-|-5-5-5-5-|-5-5-5-5-|-5-5-5-5-|-7-7-7-7-|-7-7-7-7-|-7-7-7-7-|-7-7-7-7-|
A|-3-5-3-3-|-3-3-3-3-|-5-5-5-5-|-5-5-5-5-|-7-7-7-7-|-7-7-7-7-|-7-7-7-7-|-7-7-7-7-|
E|---------|---------|-3-3-3-3-|-3-3-3-3-|-5-5-5-5-|-5-5-5-5-|-5-5-5-5-|-5-5-5-5-|



PRE-CHORUS (play 4x)
=====================

e|---------|---------|
B|---------|---------|
G|---5-----|---------|
D|-335-5-5-|-5-5-5-5-|
A|-333-5-5-|-5-5-5-5-|
E|-11--3-3-|-3-3-5-3-|



CHORUS (play 1x)
=================

e|---------|---------|---------|---------|---------|---------|---------|---------|
B|---------|---------|---------|---------|---------|---------|---------|---------|
G|-5-5-5-5-|-5-5-5-5-|---------|---------|-5-5-5-5-|-5-5-5-5-|---------|---------|
D|-5-5-5-5-|-5-5-5-5-|-3-3-3-3-|-3-3-3-3-|-5-5-5-5-|-5-5-5-5-|-5-5-5-5-|-5-5-5-5-|
A|-3-3-3-3-|-3-3-3-3-|-3-3-3-3-|-3-3-3-3-|-3-3-3-3-|-3-3-3-3-|-5-5-5-5-|-5-5-5-5-|
E|---------|---------|-1-1-1-1-|-1-1-1-1-|---------|---------|-3-3-3-3-|-3-3-3-3-|

e|---------|---------|---------|---------|---------|---------|---------|---------|
B|---------|---------|---------|---------|---------|---------|---------|---------|
G|---------|---------|---------|---------|-5-5-5-5-|---------|-5-5-5-5-|-5-5-5-5-|
D|-7-7-7-7-|-7-7-7-7-|-3-3-3-3-|-3-3-3-3-|-5-5-5-5-|-5-5-5-5-|-5-5-5-5-|-5-5-5-5-|
A|-7-7-7-7-|-7-7-7-7-|-3-3-3-3-|-3-3-3-3-|-3-3-3-3-|-5-5-5-5-|-3-3-3-3-|-3-3-3-3-|
E|-5-5-5-5-|-5-5-5-5-|-1-1-1-1-|-1-1-1-1-|---------|-3-3-3-3-|---------|---------|



SOLO (play 1x)
=================

1st Guitar:

e|---------|---------|---------|---------|---------|---------|---------|---------|
B|-5---5---|-5---5---|-6---6---|-6---6---|-5---5---|-5---5---|-8---8---|-8---8---|
G|---5---5-|---5---5-|---5---5-|---5---5-|---5---5-|---5---5-|---7---7-|---7---7-|
D|---------|---------|---------|---------|---------|---------|---------|---------|
A|---------|---------|---------|---------|---------|---------|---------|---------|
E|---------|---------|---------|---------|---------|---------|---------|---------|

e|---------|---------|---------|---------|---------|---------|---------|---------|
B|-5---5---|-5---5---|-6---6---|-6---6---|-5---5---|-3---3---|---------|---------|
G|---5---5-|---5---5-|---5---5-|---5---5-|---5---5-|---4---4-|-5-5-5-5-|-let ring|
D|---------|---------|---------|---------|---------|---------|---------|---------|
A|---------|---------|---------|---------|---------|---------|---------|---------|
E|---------|---------|---------|---------|---------|---------|---------|---------|


2nd Guitar: Chorus


END PART (1x time)
=================

1st Guitar:
At the end with some palm-mute !

e|---------|---------|---------|---------|---------|---------|---------|---------|
B|---------|---------|---------|---------|---------|---------|---------|---------|
G|-5-5-5-5-|---------|---------|---------|-5-5-5-5-|---------|-5-5-5-5-|-5-5-5-5-|
D|-5-5-5-5-|-5-5-5-5-|-7-7-7-7-|-3-3-3-3-|-3-3-3-3-|-5-5-5-5-|-5-5-5-5-|-5-5-5-5-|
A|-3-3-3-3-|-5-5-5-5-|-7-7-7-7-|-3-3-3-3-|-3-3-3-3-|-5-5-5-5-|-3-3-3-3-|-3-3-3-3-|
E|---------|-3-3-3-3-|-5-5-5-5-|-1-1-1-1-|---------|-3-3-3-3-|---------|---------|

2nd Guitar:

e|---------|---------|---------|---------|---------|---------|---------|---------|
B|-5---5---|-3---3---|-5---5---|-6---6---|-5---5---|-3---3---|---------|---------|
G|---5---5-|---4---4-|---5---5-|---5---5-|---5---5-|---4---4-|-5-5-5-5-|-let ring|
D|---------|---------|---------|---------|---------|---------|---------|---------|
A|---------|---------|---------|---------|---------|---------|---------|---------|
E|---------|---------|---------|---------|---------|---------|---------|---------|


Play:

Intro
Verse
Pre-Chorus
Verse
Pre-Chorus
Chorus
Solo (2nd Guitar: Chorus)
Chorus
Chorus (2nd Guitar: Solo)
End Part (2nd Guitar: End Part Solo)
Volver arriba Ir abajo
Ver perfil de usuario
 
Ha Ha You're Dead
Volver arriba 
Página 1 de 1.
 Temas similares
-
» Dead Capo- Banda madrileña de jazz/rock...
» Entrevista a DEAD CONGREGATION en Executioner Zine
» GRAVEYARD - One With The Dead
» King Tuff -> "Was Dead"
» Nuevo fichaje: COME BACK FROM THE DEAD

Permisos de este foro:No puedes responder a temas en este foro.
Green Day Fan Venezuela :: Green Day :: Música, Videos, Letras, Imagenes y algo más :: Tablaturas de Guitarra :: Shenanigans-
Cambiar a: