Green Day Fan Venezuela

Punto de Reunión para todos los fans de Green Day Venezolanos!
 
ÍndiceÍndice  CalendarioCalendario  GaleríaGalería  FAQFAQ  MiembrosMiembros  Grupos de UsuariosGrupos de Usuarios  RegistrarseRegistrarse  Conectarse  

Comparte | 
 

 Tired of Waiting for You

Ir abajo 
AutorMensaje
Samanta_L
Admin


Mensajes : 32
Fecha de inscripción : 14/06/2010

MensajeTema: Tired of Waiting for You   Sáb Mar 23, 2013 12:04 pm



Intro (primera guitarra) (first guitar)

1|------------------3--------------------------------------|
2|---------3-----------------------------------------------|
3|-------4--------2----------------------------------------|
4|--3/5------5/3-------------------------------------------| x14
5|---------------------------------------------------------|
6|---------------------------------------------------------|

(A la quinta ves de haber repetido esto empieza a cantar)



So tired
Tired of waiting...
Tired of waiting for you
So tired
Tired of waiting...
Tired of waiting for you


Intro (segunda guitarra acompaña a primera guitarra) (second guitar)

1|---------------------------------------------------------|
2|---------------------------------------------------------|
3|---------------------------------------------------------|x2
4|--5/3--3/5--5/3--3/5--5/3--3/5--5/3--3/5--5/3--3/5-------|
5|--5/3--3/5--5/3--3/5--5/3--3/5--5/3--3/5--5/3--3/5-------|
6|--3/1--1/3--3/1--1/3--3/1--1/3--3/1--1/3--3/1--1/3-------|


1|---------------------------------------------------------|
2|---------------------------------------------------------|
3|------5-5------------------------------------------------|x7
4|--5-5-5-5------------------------------------------------|
5|--5-5-3-3------------------------------------------------|
6|--3-3----------------------------------------------------|


I was a lonely soul
I had nobody till I met you
But you keep me waiting all of the time
What can I do???

1|--0--0--0---------------------------------------------------|
2|--0--1--0---------------------------------------------------|
3|--1--2--0---------------------------------------------------|x2
4|--2--3--1---------------------------------------------------|
5|--3--0--2---------------------------------------------------|
6|--0--0--3---------------------------------------------------|

It's your life
And you can do what you want

Do what you like ...

1|---------------------------------------------------------|
2|---------------------------------------------------------|
3|--------------5-5-5-5-5-5--------------------------------|x2
4|--5-5-5-5-5-5-5-5-5-5-5-5--------------------------------|
5|--5-5-5-5-5-5-3-3-3-3-3-3--------------------------------|
6|--3-3-3-3-3-3--------------------------------------------|


...But please don't keep me waiting
But please don't keep me waiting


1|------------------3--------------------------------------|
2|---------3-----------------------------------------------|
3|-------4--------2----------------------------------------|
4|--3/5------5/3-------------------------------------------| x11
5|---------------------------------------------------------|
6|---------------------------------------------------------|

(A la quinta ves de haber repetido esto empieza a cantar)


So tired
Tired of waiting...
Tired of waiting for you
So tired
Tired of waiting...
Tired of waiting for you


Intro (segunda guitarra acompaña a primera guitarra) (second guitar)

1|---------------------------------------------------------|
2|---------------------------------------------------------|
3|---------------------------------------------------------|
4|--5/3--3/5--5/3--3/5--5/3--3/5--5/3--3/5--5/3--3/5--5/3--|
5|--5/3--3/5--5/3--3/5--5/3--3/5--5/3--3/5--5/3--3/5--5/3--|
6|--3/1--1/3--3/1--1/3--3/1--1/3--3/1--1/3--3/1--1/3--3/1--|



1|---------------------------------------------------------|
2|---------------------------------------------------------|
3|------5-5------------------------------------------------|x7
4|--5-5-5-5------------------------------------------------|
5|--5-5-3-3------------------------------------------------|
6|--3-3----------------------------------------------------|


I was a lonely soul
I had nobody till I met you
But you keep me waiting all of the time
What can I do???


1|--0--0--0---------------------------------------------------|
2|--0--1--0---------------------------------------------------|
3|--1--2--0---------------------------------------------------|x2
4|--2--3--1---------------------------------------------------|
5|--3--0--2---------------------------------------------------|
6|--0--0--3---------------------------------------------------|

It's your life
And you can do what you want

Do what you like ...

1|---------------------------------------------------------|
2|---------------------------------------------------------|
3|--------------5-5-5-5-5-5--------------------------------|x2
4|--5-5-5-5-5-5-5-5-5-5-5-5--------------------------------|
5|--5-5-5-5-5-5-3-3-3-3-3-3--------------------------------|
6|--3-3-3-3-3-3--------------------------------------------|


...But please don't keep me waiting
But please don't keep me waiting


1|------------------3--------------------------------------|
2|---------3-----------------------------------------------|
3|-------4--------2----------------------------------------|
4|--3/5------5/3-------------------------------------------| x14
5|---------------------------------------------------------|
6|---------------------------------------------------------|

(A la quinta ves de haber repetido esto empieza a cantar)


So tired
Tired of waiting...
Tired of waiting for you

So tired
Tired of waiting...
Tired of waiting for you


Intro (segunda guitarra acompaña a primera guitarra) (second guitar)

1|---------------------------------------------------------|
2|---------------------------------------------------------|
3|---------------------------------------------------------|x2
4|--5/3--3/5--5/3--3/5--5/3--3/5--5/3--3/5--5/3--3/5-------|
5|--5/3--3/5--5/3--3/5--5/3--3/5--5/3--3/5--5/3--3/5-------|
6|--3/1--1/3--3/1--1/3--3/1--1/3--3/1--1/3--3/1--1/3-------|


For You... x2

Volver arriba Ir abajo
Ver perfil de usuario
 
Tired of Waiting for You
Volver arriba 
Página 1 de 1.
 Temas similares
-
» SAM PAGE - Waiting for Another Spring EP (2012)
» WILLIAM SIKSTRÖM - I Will Be Waiting (2015)
» Radio Days - "Get Some Action" (2013)
» Wait for you (Joe y tú) Romantica-Hot (TERMINADA)

Permisos de este foro:No puedes responder a temas en este foro.
Green Day Fan Venezuela :: Green Day :: Música, Videos, Letras, Imagenes y algo más :: Tablaturas de Guitarra :: Shenanigans-
Cambiar a: