Green Day Fan Venezuela

Punto de Reunión para todos los fans de Green Day Venezolanos!
 
ÍndiceÍndice  CalendarioCalendario  GaleríaGalería  FAQFAQ  MiembrosMiembros  Grupos de UsuariosGrupos de Usuarios  RegistrarseRegistrarse  Conectarse  

Comparte | 
 

 ..Espionage..

Ir abajo 
AutorMensaje
Samanta_L
Admin


Mensajes : 32
Fecha de inscripción : 14/06/2010

MensajeTema: ..Espionage..   Sáb Mar 23, 2013 12:06 pm


Intro:
--------
Em
1:--0--
2:--0--
3:--0--
4;--2--
5:--2--
6:--0-

Main Riff:
--------------
Part 1 -
1:---------------------------------------------|
2:---------------------------------------------|
3:---------------------------------------------|
4:---------------------------------------------|
5:-------------2-2----1-1-1-0-----0-0----------|
6:--0-0--3-3-------3-----------3------3-2------| 4x

Part 2-
1:---------------------------------------------|
2:---------------------------------------------|
3:---------------------------------------------|
4: -------------2-2----1-1-1-0-----0-0---------|
5: --0-0--3-3-------3----------3-------3-2-----|
6:---------------------------------------------| 2x


Riff 2:
---------
(Figure out the strumming pattern)

Main Guitar-
B C B C B C D#
1:-----------------------------
2:-----------------------------
3:--4---5---4---5---4---5---9--
4:--4---5---4---5---4---5---9--
5:--2---3---2---3---2---3---6--
6:-----------------------------

Background Guitar-

1:---------------------------------------------------
2:---------------------------------------------------
3:------4-----------5-----------4-----------5--------
4:----4---4-------5---5-------4---4-------5---5------
5:---2-----2--0--3-----3--0--2-----2--0--3-----3--0--
6:---------------------------------------------------

1:---------------------------------------------------------------
2:---------------------------------------------------------------
3:----4-------------4------------------------------------------
4:--4---4---------4---4--------5---5---5---5----9---9---9---9--
5:-2-----2--2-2--2-----2-----3---3---3---3----6---6---6---6----
6:---------------------------------------------------------------

Song Structure:

Intro
Main Riff - Part 1 5x
Main Riff - Part 2 2x
Main Riff - Part 1 2x
Riff 2
Main Riff - Part 1 5x
Main Riff - Part 2 2x
Main Riff - Part 1 2x
Riff 2
Main Riff - Part 1 5x
Main Riff - Part 2 2x
Main Riff - Part 1 2x
Riff 2
Intro
Main Riff - Part 1 5x
Main Riff - Part 2 2x
Main Riff - Part 1 2x
Riff 2
Volver arriba Ir abajo
Ver perfil de usuario
Samanta_L
Admin


Mensajes : 32
Fecha de inscripción : 14/06/2010

MensajeTema: Re: ..Espionage..   Dom Mar 24, 2013 1:55 pm



Version 2

{Part A}

e--------------------------------------- ~
b----------------------------------- --- ~
g----------------------------------- -- ~
d--------------------------------------- ~ ~ Repeat this 6 times
a-----------2-2---1-1-1-0---0-0----- -- ~
E--0-0--3-3-----3---------3-----3-2- --- ~

{Part B}

e--------------------------------------- ~
b----------------------------------- --- ~
g----------------------------------- -- ~
d-----------2-2---1-1-1-0---0-0--------- ~ ~ Repeat this 2 times
a--0-0--3-3-----3---------3-----3-2- -- ~
E----------------------------------- --- ~

{Part A}

e--------------------------------------- ~
b----------------------------------- --- ~
g----------------------------------- -- ~
d--------------------------------------- ~ ~ Repeat this 2 times
a-----------2-2---1-1-1-0---0-0----- -- ~
E--0-0--3-3-----3---------3-----3-2- --- ~

{Note: After you play that ^^^^ this goes directly into it!}

{Part C}

e------------------------------------------------------------- ~
b------------------------------------------------------------- ~
g------------------------------------------------------------- ~
d------------3-----------3---------------------2-2-2-2-2-2-2-2 ~
a--2*-2*-3*-3----2*-2*-3*-3---2*-2*-2*-2*-3-3-3-3-3-3-3-3----- ~
E------------------------------------------------------------- ~

{Note: * means take like a second pause... the eight 3's in a row as well as the eight
in a row are played pretty fast. if u have the song you know what i mean about the
srry if you dont}

{Part A}

e--------------------------------------- ~
b----------------------------------- --- ~
g----------------------------------- -- ~
d--------------------------------------- ~ ~ Repeat this 4 times
a-----------2-2---1-1-1-0---0-0----- -- ~
E--0-0--3-3-----3---------3-----3-2- --- ~

{Part B}

e--------------------------------------- ~
b----------------------------------- --- ~
g----------------------------------- -- ~
d-----------2-2---1-1-1-0---0-0--------- ~ ~ Repeat this 2 times
a--0-0--3-3-----3---------3-----3-2- -- ~
E----------------------------------- --- ~

{Part A}


e--------------------------------------- ~
b----------------------------------- --- ~
g----------------------------------- -- ~
d--------------------------------------- ~ ~ Repeat this 2 times
a-----------2-2---1-1-1-0---0-0----- -- ~
E--0-0--3-3-----3---------3-----3-2- --- ~

{Part C}

e------------------------------------------------------------- ~
b------------------------------------------------------------- ~
g------------------------------------------------------------- ~
d------------3-----------3---------------------2-2-2-2-2-2-2-2 ~
a--2*-2*-3*-3----2*-2*-3*-3---2*-2*-2*-2*-3-3-3-3-3-3-3-3----- ~
E------------------------------------------------------------- ~

The patterns:
"Part A" x6
"Part B" x2
"Part A" x2
"Part C" x1

"Part A" x4
"Part B" x2
"Part A" x2
"Part C" x1

"Part A" x4
"Part B" x2
"Part A" x2
"Part C" x1

there will be a few seconds that your fingers get a break for a few beats on the drum
you start back up like in the beginning.

"Part A" x6
"Part B" x2
"Part A" x2
"Part C" x1

Thats it, if u follow this and play with the song, you will know the entire guitar parts!
Volver arriba Ir abajo
Ver perfil de usuario
 
..Espionage..
Volver arriba 
Página 1 de 1.

Permisos de este foro:No puedes responder a temas en este foro.
Green Day Fan Venezuela :: Green Day :: Música, Videos, Letras, Imagenes y algo más :: Tablaturas de Guitarra :: Shenanigans-
Cambiar a: