Green Day Fan Venezuela

Punto de Reunión para todos los fans de Green Day Venezolanos!
 
ÍndiceÍndice  CalendarioCalendario  GaleríaGalería  FAQFAQ  MiembrosMiembros  Grupos de UsuariosGrupos de Usuarios  RegistrarseRegistrarse  Conectarse  

Comparte | 
 

 Don't Wanna Fall in Love

Ir abajo 
AutorMensaje
Samanta_L
Admin


Mensajes : 32
Fecha de inscripción : 14/06/2010

MensajeTema: Don't Wanna Fall in Love   Sáb Mar 23, 2013 12:06 pm


Standard Tuning (EADGBE)

Listen to song for rhythm

Verse 1
-----------------------------------------------------
-----------------------------------------------------
--888888888888888888888888888888888888888888888888---
--888888888888888888888888888888888888888888888888---
--666666666666666666666666666666666666666666666666---
-----------------------------------------------------

Prechorus
-----------------------------------------------------
-----------------------------------------------------
--------------------------888888888888888888888888---
--6666666666666666666666--888888888888888888888888---
--6666666666666666666666--666666666666666666666666---
--4444444444444444444444-----------------------------

Chorus
-----------------------------------------------------
-----------------------------------------------------
-----------------------------------------------------
--8888888888888888888888--6--------------------------
--8888888888888888888888--6--------------------------
--6666666666666666666666--4--------------------------

Verse 2
-----------------------------------------------------
-----------------------------------------------------
--888888888888888888888888888888888888888888888888---
--888888888888888888888888888888888888888888888888---
--666666666666666666666666666666666666666666666666---
-----------------------------------------------------

Prechorus
-----------------------------------------------------
-----------------------------------------------------
--------------------------888888888888888888888888---
--6666666666666666666666--888888888888888888888888---
--6666666666666666666666--666666666666666666666666---
--4444444444444444444444-----------------------------

Chorus
-----------------------------------------------------
-----------------------------------------------------
-----------------------------------------------------
--8888888888888888888888--6--------------------------
--8888888888888888888888--6--------------------------
--6666666666666666666666--4--------------------------

Solo
-----------------------------------------------------
-----------------------------------------------------
-----------------------------------------------------
-8-8-8-8-10-8-8-5--8-8-8-8-10-8-5-8--8-8-8-8-10-8-8-5
-----------------------------------------------------
-----------------------------------------------------

Solo Cont.
-----------------------------------------------------
-----------------------------------------------------
-----------------------------------------------------
-8-8-8-8-8-8-10-8-5-8-8-8-8-8-8-10-8-5--6-6-6-10-13--
-----------------------------------------------------
-----------------------------------------------------

Solo Cont.
-----------------------------------------------------
-----------------------------------------------------
------------------12---10---8-----8------------------
-17-15-13-10-8--8----8----8-----8--------------------
-----------------------------------------------------
-----------------------------------------------------

Chorus
-----------------------------------------------------
-----------------------------------------------------
-----------------------------8888888888888888888-----
--8888888888888888888888--6--8888888888888888888-----
--8888888888888888888888--6--6666666666666666666-----
--6666666666666666666666--4-------------------------- X3

On third Time Play this:
-----------------------------------------------------
-----------------------------------------------------
-----------------------------------------------------
--8888888888888888888888--6-6-6666-------------------
--8888888888888888888888--6-6-6666-------------------
--6666666666666666666666--4-4-4444-------------------

Outro
-----------------------------------------------------
-----------------------------------------------------
--8888888888888888888888888888888888----88-----------
--8888888888888888888888888888888888----88 Let Ring--
--6666666666666666666666666666666666----66-----------
-----------------------------------------------------



Si no les gusta como suena el solo, pueden probar este otro:

e|----------------------------------|
B|----------------------------------|
G|-3--3-5-0-3----3-3--3-3-3-5-3---3-|
D|------------5-----------------5---|
A|----------------------------------|
E|----------------------------------|

e|-----------------------------------------------------|
B|-----------------------------------------------------|
G|-3-3--3-5-0-3----3-3--3-3-3-5-3---3--3-3-3-3-5-3---3-|
D|--------------5-----------------5----------------5---|
A|-----------------------------------------------------|
E|-----------------------------------------------------|

e|--------------------------8^---7^---6^---5^-|
B|------------7-6-----------------------------|
G|--------5-8-----8-5-------------------------|
D|-6--6-6-------------8---8----8----8----8----|
A|--------------------------------------------|
E|--------------------------------------------|


Volver arriba Ir abajo
Ver perfil de usuario
 
Don't Wanna Fall in Love
Volver arriba 
Página 1 de 1.
 Temas similares
-
» [20100910] MSta Mini Suite + Love Rainbow
» Immortal - All Shall Fall
» "Feels like love" (Danger Danger)
» First Love Corea Dvdrip VO+sub-esp
» PHIL KEAGGY - The Cover of Love (2012)

Permisos de este foro:No puedes responder a temas en este foro.
Green Day Fan Venezuela :: Green Day :: Música, Videos, Letras, Imagenes y algo más :: Tablaturas de Guitarra :: Shenanigans-
Cambiar a: