Green Day Fan Venezuela

Punto de Reunión para todos los fans de Green Day Venezolanos!
 
ÍndiceÍndice  CalendarioCalendario  GaleríaGalería  FAQFAQ  MiembrosMiembros  Grupos de UsuariosGrupos de Usuarios  RegistrarseRegistrarse  Conectarse  

Comparte | 
 

 Boulevard Of Broken Dreams

Ir abajo 
AutorMensaje
Samanta_L
Admin


Mensajes : 32
Fecha de inscripción : 14/06/2010

MensajeTema: Boulevard Of Broken Dreams   Miér Mar 27, 2013 8:12 pm

Riff 1:
e|-----------------------|
B|--8-9---9/13-11---8-9--|
G|-----------------------|
D|-----------------------|
A|-----------------------|
E|-----------------------|

Riff 2: x3
e|------------------------------|
B|-------8-9---9/13-11---8-9--9-|
G|-10-10------------------------|
D|------------------------------|
A|------------------------------|
E|------------------------------|

e|---------------------------------------|
B|--------8-9--9/13-11-13-13-13-13-13-13-|
G|-10-10---------------------------------|
D|---------------------------------------|
A|---------------------------------------|
E|---------------------------------------|

e|---------------------------------------|
B|-13-13-13-13-13-13-13------------------|
G|---------------------------------------|
D|---------------------------------------|
A|---------------------------------------|
E|---------------------------------------|

Verse:

The verse chords on the album are actually played with a
capo on the first fret as open chords (Em G D A), but
they're tabbed here for use without a capo.

Fm G# D# A# A# A# C5 <- Played over the end of
e|--1----4----6----6---|------------| the last repitition before
B|--1----4----8----6---|------------| chorus (distored).
G|--1----5----8----7---|--3--3--5---|
D|--3----6----8----8---|--3--3--5---|
A|--3----6----6----8---|--1--1--3---|
E|--1----4---------6---|------------|
(I walk a-)
Chorus:
C#5 G#5 D#5 F5 x3 C#5 G#5 C5
e|---------------------------------------|
B|---------------------------------------|
G|--6---------8------------6---------5---|
D|--6----6----8----3-------6----6----5---|
A|--4----6----6----3-------4----6----3---|
E|-------4---------1------------4--------|

Outro:
Guitar 1 x3
e|--------------------------------------------------------|
B|--------------------------------------------------------|
G|--------------------------------------------------------|
D|--------------------------------------------------------|
A|---------4--4--4--6--6--6--5--5--5----------------------|
E|-1--1--1-----------------------------4--4--4--0--0--0---|

Guitar 2 (strum fast) x3
e|--------------------------------------------------------|
B|-------------------------------------16-16-16-17-17-17--|
G|-10-10-10-10-10-10-10-10-10-10-10-10-13-13-13-xx-xx-xx--|
D|-x--x--x--x--x--x--x--x--x--x--x--x-----------14-14-14--|
A|-8--8--8--8--8--8--8--8--8--8--8--8---------------------|
E|--------------------------------------------------------|

Guitar 1
e|-------------------------------------------------|
B|-------------------------------------------------|
G|-------------------------------------------------|
D|-------------------------------------6--6--2--2--|
A|---------4--4--4--6--6--6--5--5--5---6--6--2--2--|
E|-1--1--1-----------------------------4--4--0--0--|

Guitar 2 (strum fast)
e|--------------------------------------------------|
B|-------------------------------------16-16-17-17--|
G|-10-10-10-10-10-10-10-10-10-10-10-10-13-13-xx-xx--|
D|-x--x--x--x--x--x--x--x--x--x--x--x--------14-14--|
A|-8--8--8--8--8--8--8--8--8--8--8--8---------------|
E|--------------------------------------------------|

Order:

Verse (2x alone, 1x w/Riff 1)
Verse (2x alone, 2x w/Riff 1)
Chorus
Verse (4x alone, 1x w/Riff 1)
Verse (2x alone, 2x w/Riff 1)
Chorus
Verse x2
Chorus (w/Riff 2)
Verse x2
Chorus (w/end of Riff 2 after 2nd repeat)
Outro
Volver arriba Ir abajo
Ver perfil de usuario
 
Boulevard Of Broken Dreams
Volver arriba 
Página 1 de 1.
 Temas similares
-
» [MR Audio] Visual Dreams - SNSD
» Funebrarum - The Sleep Of Morbid Dreams - CD/LP
» Solo un Juego Eres!,,Game Over!..O Broken Heart!--Joe & Tu--
» MISS CHAIN & THE BROKEN HEELS - THE DAWN (2013)
» PRÓXIMO SINGLE DE MISS CHAIN & THE BROKEN HEELS

Permisos de este foro:No puedes responder a temas en este foro.
Green Day Fan Venezuela :: Green Day :: Música, Videos, Letras, Imagenes y algo más :: Tablaturas de Guitarra :: American Idiot-
Cambiar a: